Oops, an error
Loading. Please wait.

Tornado Tab

2,181 views 3 this week
no commentswrite comment
1 2 3 4 5
accurate
x 1
add to favorites
launch autoscroll
font size
0
reset
how to read this tab
guitar tuner
Tab Pro tools
  • play this tab
  • loop segment
  • change instrument
  • show fretboard
  • metronome
Autoscroll
slow
fast
+/-
esc
set tempo
stop
Contributor
Difficulty
intermediate
---------------------------------------------------------------------------
                          "TORNADO" - Voivod
---------------------------------------------------------------------------

Tabbed by: Greg Frisenda
Email: clanktherobot@yahoo.com

Tuning: Standard E

Riff A - Intro - 4x first speed, 4x faster (with pick slide), 4x again
e|------------------------|
B|------------------------|
G|------------------------|
D|------------------------|
A|------------------------|
E|-0--0--0-0--0-0-0-0-----|

Riff B - Intro
e|------------------------------------------------------------------------|
B|------------------------------------------------------------------------|
G|---------------------------------------------7-7------7-7-10-10-7-7-1010|
D|---------------------6-6-----6-6-9-9-6-6-9-9-6-6-9-9--6-6-9--9--6-6-9-9-|
A|-2-2-5-5-8-8-5-5-8-8-5-5-8-8-5-5-8-8-5-5-8-8-----8-8--------------------|
E|-1-1-4-4-7-7-4-4-7-7-----7-7--------------------------------------------|

                                                                        3x
e|---------------------------|--------------------------------------------|
B|-------12-12-9-9-12-12-9-9-|-12-12-12-12-12-12-12-12-9-9-9-9-9-9-9-9----|
G|-13-13-10-10-7-7-10-10-7-7-|-10-10-10-10-10-10-10-10-8-8-8-8-8-8-8-8----|
D|-12-12---------------------|--------------------------------------------|
A|---------------------------|--------------------------------------------|
E|---------------------------|--------------------------------------------|

e|---------------------------------------------------|
B|-12-12-12-12-12-12-12-12-12-12-12-12-12-12-12-12---|
G|-10-10-10-10-10-10-10-10-10-10-10-10-10-10-10-10---|
D|---------------------------------------------------|
A|---------------------------------------------------|
E|---------------------------------------------------|

Riff C                                         Harm.
e|---------------------------------------------------|
B|---------------------------------------------------|
G|------3----------5--------------3------------5-----|
D|-2----3----2-----5------2-------4-----2------------|
A|-2----1----2-----3------2-------------2------------|
E|-0----1----0-----3------0-------------0------------|

Riff D - Verse
e|------------------------------------------------------------------------|
B|------------------------------------------------------------------------|
G|-9-----------------------3-3-3-3-3-3-4----------------------5-5-5-5-5-5-|
D|-9-----------------------3-3-3-3-3-3-2----------------------5-5-5-5-5-5-|
A|-7-----------------------1-1-1-1-1-1------------------------3-3-3-3-3-3-|
E|-0-0-0-0-0-0-0-0-0-0-0-0---------------0-0-0-0-0-0-0-0-0-0--------------|

e|------------------------------------------------------------------------|
B|------------------------------------------------------------------------|
G|-4-----------------------3-3-3-3-3-3-4-------------------10101010-10-12-|
D|-2-----------------------4-4-4-4-4-4-2-------------------10101010-10-12-|
A|---------------------------------------------------------8-8-8-8--------|
E|---0-0-0-0-0-0-0-0-0-0-0---------------0-0-0-0-0-0-0-0-0----------------|

Riff E - Pre-Chorus
e|------------------------------------------------------------------------|
B|------------------------------------------------------------------------|
G|----------------9-9-9-9-9-9-9-9-----------------9-9-9-9-9-9-9-9-7-7-7-7-|
D|-8-8-8-8-8-8-8--8-8-8-8-8-8-8-8-8-8-8-8-8-8-8-8-8-8-8-8-8-8-8-8-7-7-7-7-|
A|-8-8-8-8-8-8-8--7-7-7-7-7-7-7-7-8-8-8-8-8-8-8-8-7-7-7-7-7-7-7-7-5-5-5-5-|
E|-6-6-6-6-6-6-6------------------6-6-6-6-6-6-6-6-----------------5-5-5-5-|

e|------------------------------------------------------------------------|
B|------------------------------------------------------------------------|
G|-7-7-7-7-7--13-13-13-13-13-13-13-13-13-7-7-7-7-7-7-7-13-13-13-13-13-13--|
D|-7-7-7-7-7--12-12-12-12-12-12-12-12-12-7-7-7-7-7-7-7-12-12-12-12-12-12--|
A|-5-5-5-5-5--11-11-11-11-11-11-11-11-11-5-5-5-5-5-5-5-11-11-11-11-11-11--|
E|-5-5-5-5-5-----------------------------5-5-5-5-5-5-5--------------------|

e|------------------------------------------------------------------------|
B|------------------------------------------------------------------------|
G|---------------12-12-12-12-12-12-12-----------------12-12-12-12-12-12-12|
D|-5-5-5-5-5-5-5-11-11-11-11-11-11-11-5-5-5-5-5-5-5-5-11-11-11-11-11-11-11|
A|-5-5-5-5-5-5-5-10-10-10-10-10-10-10-5-5-5-5-5-5-5-5-10-10-10-10-10-10-10|
E|-3-3-3-3-3-3-3----------------------3-3-3-3-3-3-3-3---------------------|

e|------------------------------------------------------------------------|
B|------------------------------------------------------------------------|
G|-7-7-7-7-7-7-7-13-13-13-13-13-13-13-7-7-7-7-7-7-7-7-13-13-13-13-13-13-13|
D|-7-7-7-7-7-7-7-12-12-12-12-12-12-12-7-7-7-7-7-7-7-7-12-12-12-12-12-12-12|
A|-5-5-5-5-5-5-5-11-11-11-11-11-11-11-5-5-5-5-5-5-5-5-11-11-11-11-11-11-11|
E|-5-5-5-5-5-5-5----------------------5-5-5-5-5-5-5-5---------------------|

Riff F - Chorus - 2x (end short, drum fill)
e|------------------------------------------------------------------------|
B|------------------------------------------------------------------------|
G|-5-5-5-5-5-5-5-5-5-5-5-5-5-5-5-5-5-10-10-10-10-10-10-10-10-10-10-10-10--|
D|-7-7-7-7-7-7-7-7-7-7-7-7-7-7-7-7-7-10-10-10-10-10-10-10-10-10-10-10-10--|
A|-0-0-0-0-0-0-0-0-0-0-0-0-0-0-0-0-0-8--8--8--8--8--8--8--8--8--8--8--8---|
E|------------------------------------------------------------------------|

e|-------------------------------------------------------------0----------|
B|-------------------------------------------------------------0---0------|
G|-5-5-5-5-5-5-5-5-5-5-5-5-5-5-5-5-5-------------------------------0---0--|
D|-7-7-7-7-7-7-7-7-7-7-7-7-7-7-7-7-7-3-3-3-3-3-3-3-3-3-3-3-3-3-3-3-3-3-3-3|
A|-0-0-0-0-0-0-0-0-0-0-0-0-0-0-0-0-0-3-3-3-3-3-3-3-3-3-3-3-3-3-3-3-3-3-3-3|
E|-----------------------------------1-1-1-1-1-1-1-1-1-1-1-1-1-1-1-1-1-1-1|

Repeat Riff D
Repeat Riff E
Repeat Riff F (play through 2x full)

                            bass fill
e|------------------------------------------------------------------------|
B|------------------------------------------------------------------------|
G|------------------------------------------------------------------------|
D|-2----------------------------------------------------------------------|
A|-2----------------------------------------------------------------------|
E|-0----------------------------------------------------------------------|

Riff G - Bridge - 2x
e|-------------------------------|
B|-------------------------------|
G|-------------------------------|
D|-------------------------------|
A|-------2-----------2-----------|
E|-0-1-0---3-1-0-1-0---0-3-0--1--|

Riff H - Bridge - 4x
e|--------------------------------------|
B|--------12--------------12------------|
G|-9-10-9-12-12-10-9-10-9-12-9-12-9-10--|
D|-9-10-9----12-10-9-10-9----9-12-9-10--|
A|--------------------------------------|
E|--------------------------------------|

Solo - Did Not Transcribe

Riff I - Bridge      4x                       2x                        2x
e|-----------------------|----------------------|-------------------------|
B|-----------------------|-6---7----6-6-7-6-6-7-|--9---10--9-9-10-9-9-10--|
G|-6---7----6-6-7-6-6-7--|-6---7----6-6-7-6-6-7-|--6---7---6-6-7--6-6-7---|
D|-6---7----6-6-7-6-6-7--|-6---7----6-6-7-6-6-7-|--6---7---6-6-7--6-6-7---|
A|-4---5----4-4-5-4-4-5--|----------------------|-------------------------|
E|-4---5----4-4-5-4-4-5--|----------------------|-------------------------|

e|-------------------|
B|-------------------|
G|-------------------|
D|-------------------|
A|-------2-----------|
E|-0-1-0---0-3-0-1---|

Repeat Riff G
Repeat Riff H
Solo - Did Not Transcribe
Repeat Riff I
Repeat Riff B

Riff J - 8x
e|----------------------------|
B|----------------------------|
G|-4--4-----------------------|
D|-3--3-----------------------|
A|-2--2-----------------------|
E|-------2-2-2-2-2-2-2-2-2-2--|

Riff K - 2x
e|-----------------------------|
B|-----------------------------|
G|-----------------------------|
D|-3--3--5--1--3--5-5-5-5-5-5--|
A|-2--2--4--0--2--4-4-4-4-4-4--|
E|-----------------------------|

Riff L - 2x
e|-----------------------------|
B|-6--6--8--4--6--8-8-8-8-8-8--|
G|-4--4--6--2--4--6-6-6-6-6-6--|
D|-----------------------------|
A|-----------------------------|
E|-----------------------------|

Repeat Riff J - 8x
Repeat Riff K - 2x
Repeat Riff L - 2x

Riff M - 3x
e|---------------------|
B|---------------------|
G|---------------------|
D|---------------------|
A|-4---3---4---3---2---|
E|---2---2---2---2---2-|

Riff N - 4x
e|---------------------|
B|---------------------|
G|---------------------|
D|---------------------|
A|-5---4---5---4---3---|
E|---3---3---3---3---3-|

Repeat Riff L - Fade out


| /  slide up
| \  slide down
| h  hammer-on
| p  pull-off
| ~  vibrato
| +  harmonic
| x  Mute note
===========================================================================
comments
We did not receive enough feedback on this tab! Please rate:
print report bad tab
1 2 3 4 5
I want to post or [tab]
guest
You may want to rate the tab now too:
select rating
Please do not post tabs as comments. Select "correction" instead!