Oops, an error
Loading. Please wait.

War And Pain Bass Tab

504 views 1 this week
no commentswrite comment
1 2 3 4 5
please rate
add to favorites
launch autoscroll
font size
0
reset
guitar tuner
Tab Pro tools
  • play this tab
  • loop segment
  • change instrument
  • show fretboard
  • metronome
×
Best way to learn
"War And Pain"
Autoscroll
slow
fast
+/-
esc
set tempo
stop
Contributor
Band- Voivod
Song- War And pain

Play this after the bell tolls (repeat as many times needed):
G----------------------------------------------------------------------------\\ 
D----------------------------------------------------------------------------\\ 
A----3--3--3-(3)-3-----3--3--3-(3)-3----3--3--3-(3)-3----3--3--3-(3)-3-------\\ 
E-------------------2-----------------2----------------2----------------2----\\ 

Then on to:
G----------------------------------------------------------------------------------\\ 
D-----------5-(5)-5--------------5-(5)-5-------------5-(5)-5-----------5-(5)-5-----\\
A----3--3------------------3--3----------------3--3---------------3--3-------------\\ 
E--------------------2--------------------2------------------2------------------2--\\ 

Guitar 2 and Bass: (Rest for a bit, then wait.  Listen to cd for the timing)
G-----------------------------------------------------------------\\ 
D---------------2----------2----------2-----2-----2---2--2-2-2-2--\\ 
A-----------------------------------------------------------------\\ 
E-----------------------------------------------------------------\\ 

Back to Riff  

G-------------------------------------------------------\\   
D-----------------3-----------------3-----------------3-\\   REPEAT TILL 
A----3--3--------------3--3--------------3--3-----------\\   VERSE IS  
E------------2-----------------2-----------------2------\\   FINISHED. 


G------------------------------------------------------------------------\\ 
D------------------------------------------------------------------------\\ REPEAT 
A-----------------------2--2--2----------------------3--3--3-------------\\  
E----2--3-3-3-3-3-3-3-------------2--3-3-3-3-3-3-3-----------------------\\  

G----------------------------------------------------------------------7(8)(7)>>>>>\\ 
D----2--2--3--5--2--2--0--0--0----2--2--3--5--2--2--0--0--0------------------------\\ 
A----------------------------------------------------------------------------------\\ 
E----------------------------------------------------------------------------------\\ 
     
RIFF 2

G----------------------------------------------------------------------------\\ 
D-------0--1--0--1--3------0--1--0--1----------0--1--0--1--3-----0--1--0--1--\\   
A----0------------------0-------------------0-----------------0--------------\\ 
E----------------------------------------------------------------------------\\  

Riff 2 and a little bit of what to play during the solo:

G------------------------------\\     
D------------------1--1--1-----\\ 
A----1--1--1-------------------\\     
E------------------------------\\     

     (Play this during the solo)
//-------------2-3-2-1-------------\\ 

 Then play:
G-------------------------------------------------------\\   
D-----------------3-----------------3-----------------3-\\   REPEAT TILL 
A----3--3--------------3--3--------------3--3-----------\\   VERSE IS  
E------------2-----------------2-----------------2------\\   FINISHED. 
comments
We did not receive enough feedback on this tab! Please rate:
print report bad tab
1 2 3 4 5
I want to post or [tab]
guest
You may want to rate the tab now too:
select rating
Please do not post tabs as comments. Select "correction" instead!