Oops, an error
Loading. Please wait.

We Carry On Bass Tab

version 1
version 1

Whole song

Interactive

385 views 1 this week
1 commentread comment
1 2 3 4 5
3 more votes to show rating
add to favorites
launch autoscroll
font size
0
reset
guitar tuner
Autoscroll
slow
fast
+/-
esc
set tempo
stop
Help us to improve Ultimate-Guitar.com Take our survey!
×
Band- Voivod
Song- We Carry On

intro
G|--------------|-------------|--------------|-------------|
D|--------------|-------------|--------------|-7-7-7-7-7-7-|
A|-0-0-0-0-0-0--|-0-0-0-0-0-0-|-0-0-0-0-0-0--|-------------|
E|--------------|-------------|--------------|-------------|

Riff 1
G|---------------|
D|---------------|
A|---------------|
E|-5-5-5-6-3--5--|

Riff 2
G|--------------|------------|
D|--------------|------------|
A|-0-0-0-0-03-0-|------------|
E|--------------|-3-33-1-111-|

Verse
G|---------------|------------|
D|---------------|------------|
A|-0-0-0---3-33--|------------|
E|---------------|-3-33-1-111-|

Chorus
G|--------------------------|
D|--------------5-55-3-353\-|
A|-0-0-0-0-03-0-------------|
E|--------------------------|

Riff 3
G|-------------|---------------|
D|-------------|---------------|
A|-------------|-3-3-3---------|
E|-3-3-3-6-6-6-|-------33-3-3--|

Riff 4
G|--------------|------------|
D|--------------|------------|
A|-----1�33-1---|---1-33-1---|
E|-33-�-3-----3-|-3-�3-----1-|

Fill 1
G|-------------|----------------|
D|-------------|-5h7777----5----|
A|-0-0-0-3-33--|--------67�-76\-|
E|-------------|----------------|

Song Order

Intro x1
Riff 1 x8
Riff 2 x8
Verse x8
Chorus x3
Riff 3 x4
Verse x8
Chorus x7
Riff 3 x8
Riff 4 x4
During guitar solo play riff 3 x4, with variation at end of each
Riff 4 x4
Verse x8 (use fill 1 here on 4th time!!)
Chorus x8
Riff 3 x15
Suggest correction
Give kudos to tab author, rate the tab!
1 2 3 4 5
comments
print report bad tab
1 comment total.
0 reply
saturns_bassman 789 Apr 09, 2007 08:30 PM

what the hell is with the !@#$!@#$!@#%!@%!@$!@#$!@$!%@#%^#%^&@$#!$%256236123$!@%@#%!@! bull shit going on dude?

guest
You may want to rate the tab now too:
select rating
Wanna post a correction for this tab? Suggest correction