Oops, an error
Loading. Please wait.

X-Stream bass

version 1
version 1

Whole song

Interactive

by Voivod
19 views 1 this week
no commentswrite comment
1 2 3 4 5
1 last vote to show rating
add to favorites
×
Save as Personal and add changes to this tab that will be seen only by you. Learn more ›
×
You can save this tab as Personal to edit and correct it or add notes. All changes will be seen only by you. Learn more »
launch autoscroll
font size
0
reset
guitar tuner
backing track
0:00
0:00
edit
Autoscroll
slow
fast
+/-
esc
set tempo
stop
Title: The X-Stream
Artist: Voivod
Album: Katorz
Tuning: 5 String Standard (BEADG)
Tab Author: Pearce Hamblin (The Bass Diaries)

  [Intro]
G|--------|--------|--------|--------|--------|--------|---------------------------------|
D|--------|--------|--------|--------|--------|--------|---------------------------------|
A|--------|--------|--------|--------|--------|--------|-13--13--13--13--13--13--13--13--|
E|--------|--------|--------|--------|-12-----|--------|---------------------------------|
B|--------|--------|--------|--------|--------|--------|---------------------------------|


G|------------------------------|---------------------------------|---------------------------------|
D|------------------------------|---------------------------------|---------------------------------|
A|-13--13--13--13--13--13--13---|---------------------------------|---------------------------------|
E|------------------------------|-0---0---0---0---0---0---0---0---|-0---0---0---0---0---0---0---6---|
B|------------------------------|---------------------------------|---------------------------------|


G|---------------------------------|---------------------------------|---------------------------------|
D|---------------------------------|---------------------------------|---------------------------------|
A|---------------------------------|---------------------------------|---------------------------------|
E|-0---0---0---0---0---0---0---0---|-0---0---0---0---0---0---0---6---|-0---0---0---0---0---0---0---0---|
B|---------------------------------|---------------------------------|---------------------------------|


G|---------------------------------|---------------------------------|---------------------------------|
D|---------------------------------|---------------------------------|---------------------------------|
A|---------------------------------|---------------------------------|---------------------------------|
E|-0---0---0---0---0---0---0---6---|-0---0---0---0---0---0---0---0---|-0---0---0---0---0---0---0---6---|
B|---------------------------------|---------------------------------|---------------------------------|

  [Verse 1]
G|---------------------------------|---------------------------------|---------------------------------|
D|---------------------------------|---------------------------------|---------------------------------|
A|---------------------------------|---------------------------------|---------------------------------|
E|-0---0---0---0---0---0---0---0---|-0---6---0---6---5---3---0-------|-0---0---0---0---0---0---0---0---|
B|---------------------------------|-----------------------------3---|---------------------------------|


G|---------------------------------|---------------------------------|---------------------------------|
D|---------------------------------|---------------------------------|---------------------------------|
A|---------------------------------|---------------------------------|---------------------------------|
E|-0---6---0---6---5---3---0-------|-0---0---0---0---0---0---0---0---|-0---6---0---6---5---3---0-------|
B|-----------------------------3---|---------------------------------|-----------------------------3---|


G|---------------------------------|---------------------------------|---------------------------------|
D|---------------------------------|---------------------------------|---------------------------------|
A|---------------------------------|---------------------------------|---------------------------------|
E|-0---0---0---0---0---0---0---0---|-0---6---0---6---5---3---0-------|-0---0---0---0---0---0---0---0---|
B|---------------------------------|-----------------------------3---|---------------------------------|


G|---------------------------------|---------------------------------|---------------------------------|
D|---------------------------------|---------------------------------|---------------------------------|
A|---------------------------------|---------------------------------|---------------------------------|
E|-0---6---0---6---5---3---0-------|-0---0---0---0---0---0---0---0---|-0---6---0---6---5---3---0-------|
B|-----------------------------3---|---------------------------------|-----------------------------3---|


G|---------------------------------|---------------------------------|---------------------------------|
D|---------------------------------|---------------------------------|---------------------------------|
A|---------------------------------|---------------------------------|---------------------------------|
E|-0---0---0---0---0---0---0---0---|-0---6---0---6---5---3---0-------|-0---0---0---0---0---0---0---0---|
B|---------------------------------|-----------------------------3---|---------------------------------|

                                    [Pre-Chorus 1]
G|---------------------------------|---------------------------------|------------------------------|
D|---------------------------------|---------------------------------|------------------------------|
A|---------------------------------|---------------------------------|------------------------------|
E|-0---6---0---6---5---3---0-------|-3---3---3---3---3---3---3---3---|-3---3---3---6----0---1---2---|
B|-----------------------------3---|---------------------------------|------------------------------|


G|---------------------------------|------------------------------|---------------------------------|
D|---------------------------------|------------------------------|---------5---5-------------------|
A|---------------------------------|------------------------------|---------------------------------|
E|-3---3---3---3---3---3---3---3---|-3---3---3---6----0---1---2---|-3---3-----------3---3---3---3---|
B|---------------------------------|------------------------------|---------------------------------|


G|------------------------------|---------------------------------|------------------------------|
D|------------------------------|---------------------------------|------------------------------|
A|------------------------------|---------------------------------|------------------------------|
E|-3---3---3---6----0---1---2---|-3---3---3---3---3---3---3---3---|-3---3---3---6----0---1---2---|
B|------------------------------|---------------------------------|------------------------------|


G|---------------------------------|---------------------------------|---------------------------------|
D|---------------------------------|---------------------------------|---------------------------------|
A|---------------------------------|---------------------------------|---------------------------------|
E|-0---0---0---0---0---0---0---0---|-0---0---0---0---0---0---0---6---|-0---0---0---0---0---0---0---0---|
B|---------------------------------|---------------------------------|---------------------------------|


G|---------------------------------|---------------------------------|---------------------------------|
D|---------------------------------|---------------------------------|---------------------------------|
A|---------------------------------|---------------------------------|---------------------------------|
E|-0---0---0---0---0---0---0---6---|-0---0---0---0---0---0---0---0---|-0---0---0---0---0---0---0---6---|
B|---------------------------------|---------------------------------|---------------------------------|

                                                                      [Verse 2]
G|---------------------------------|---------------------------------|---------------------------------|
D|---------------------------------|---------------------------------|---------------------------------|
A|---------------------------------|---------------------------------|---------------------------------|
E|-0---0---0---0---0---0---0---0---|-0---0---0---0---0---0---0---6---|-0---0---0---0---0---0---0---0---|
B|---------------------------------|---------------------------------|---------------------------------|


G|---------------------------------|---------------------------------|---------------------------------|
D|---------------------------------|---------------------------------|---------------------------------|
A|---------------------------------|---------------------------------|---------------------------------|
E|-0---6---0---6---5---3---0-------|-0---0---0---0---0---0---0---0---|-0---6---0---6---5---3---0-------|
B|-----------------------------3---|---------------------------------|-----------------------------3---|


G|---------------------------------|---------------------------------|---------------------------------|
D|---------------------------------|---------------------------------|---------------------------------|
A|---------------------------------|---------------------------------|---------------------------------|
E|-0---0---0---0---0---0---0---0---|-0---6---0---6---5---3---0-------|-0---0---0---0---0---0---0---0---|
B|---------------------------------|-----------------------------3---|---------------------------------|


G|---------------------------------|---------------------------------|---------------------------------|
D|---------------------------------|---------------------------------|---------------------------------|
A|---------------------------------|---------------------------------|---------------------------------|
E|-0---6---0---6---5---3---0-------|-0---0---0---0---0---0---0---0---|-0---6---0---6---5---3---0-------|
B|-----------------------------3---|---------------------------------|-----------------------------3---|


G|---------------------------------|---------------------------------|---------------------------------|
D|---------------------------------|---------------------------------|---------------------------------|
A|---------------------------------|---------------------------------|---------------------------------|
E|-0---0---0---0---0---0---0---0---|-0---6---0---6---5---3---0-------|-0---0---0---0---0---0---0---0---|
B|---------------------------------|-----------------------------3---|---------------------------------|


G|---------------------------------|---------------------------------|---------------------------------|
D|---------------------------------|---------------------------------|---------------------------------|
A|---------------------------------|---------------------------------|---------------------------------|
E|-0---6---0---6---5---3---0-------|-0---0---0---0---0---0---0---0---|-0---6---0---6---5---3---0-------|
B|-----------------------------3---|---------------------------------|-----------------------------3---|

  [Pre-Chorus 2]
G|---------------------------------|------------------------------|---------------------------------|
D|---------------------------------|------------------------------|---------5---5-------------------|
A|---------------------------------|------------------------------|---------------------------------|
E|-3---3---3---3---3---3---3---3---|-3---3---3---6----0---1---2---|-3---3-----------3---3---3---3---|
B|---------------------------------|------------------------------|---------------------------------|


G|------------------------------|---------------------------------|------------------------------|
D|------------------------------|---------5---5-------------------|------------------------------|
A|------------------------------|---------------------------------|------------------------------|
E|-3---3---3---6----0---1---2---|-3---3-----------3---3---3---3---|-3---3---3---6----0---1---2---|
B|------------------------------|---------------------------------|------------------------------|

                                                                   [Chorus 1]
G|---------------------------------|------------------------------|---------------------------------|
D|---------5---5-------------------|------------------------------|---------------------------------|
A|---------------------------------|------------------------------|---------------------------------|
E|-3---3-----------3---3---3---3---|-3---3---3---6----0---1---2---|-6---6---6---6---6---6---6---6---|
B|---------------------------------|------------------------------|---------------------------------|


G|---------------------------------|---------------------------------|---------------------------------|
D|---------------------------------|---------------------------------|---------------------------------|
A|---------------------------------|---------------------------------|---------------------------------|
E|-6---6---6---6---6---6---6---6---|-6---6---6---6---6---6---6---6---|-6---6---6---8---8---8---8---8---|
B|---------------------------------|---------------------------------|---------------------------------|


G|---------------------------------|---------------------------------|---------------------------------|
D|---------------------------------|---------------------------------|---------------------------------|
A|---------------------------------|---------------------------------|---------------------------------|
E|-9---9---9---9---9---9---9---9---|-9---9---9---9---9---9---9---9---|-9---9---9---9---9---9---9---9---|
B|---------------------------------|---------------------------------|---------------------------------|


G|---------------------------------|---------------------------------|---------------------------------|
D|---------------------------------|---------------------------------|---------------------------------|
A|---------------------------------|---------------------------------|---------------------------------|
E|-9---9---9---9---9---9---9---9---|-0---0---0---0---0---0---0---0---|-0---0---0---0---0---0---0---6---|
B|---------------------------------|---------------------------------|---------------------------------|


G|---------------------------------|---------------------------------|---------------------------------|
D|---------------------------------|---------------------------------|---------------------------------|
A|---------------------------------|---------------------------------|---------------------------------|
E|-0---0---0---0---0---0---0---0---|-0---0---0---0---0---0---0---6---|-0---0---0---0---0---0---0---0---|
B|---------------------------------|---------------------------------|---------------------------------|


G|---------------------------------|---------------------------------|---------------------------------|
D|---------------------------------|---------------------------------|---------------------------------|
A|---------------------------------|---------------------------------|---------------------------------|
E|-0---0---0---0---0---0---0---6---|-0---0---0---0---0---0---0---0---|-0---0---0---0---0---0---0---6---|
B|---------------------------------|---------------------------------|---------------------------------|

  [Verse 3]
G|---------------------------------|---------------------------------|---------------------------------|
D|---------------------------------|---------------------------------|---------------------------------|
A|---------------------------------|---------------------------------|---------------------------------|
E|-0---0---0---0---0---0---0---0---|-0---6---0---6---5---3---0-------|-0---0---0---0---0---0---0---0---|
B|---------------------------------|-----------------------------3---|---------------------------------|


G|---------------------------------|---------------------------------|---------------------------------|
D|---------------------------------|---------------------------------|---------------------------------|
A|---------------------------------|---------------------------------|---------------------------------|
E|-0---6---0---6---5---3---0-------|-0---0---0---0---0---0---0---0---|-0---6---0---6---5---3---0-------|
B|-----------------------------3---|---------------------------------|-----------------------------3---|


G|---------------------------------|---------------------------------|---------------------------------|
D|---------------------------------|---------------------------------|---------------------------------|
A|---------------------------------|---------------------------------|---------------------------------|
E|-0---0---0---0---0---0---0---0---|-0---6---0---6---5---3---0-------|-0---0---0---0---0---0---0---0---|
B|---------------------------------|-----------------------------3---|---------------------------------|


G|---------------------------------|---------------------------------|---------------------------------|
D|---------------------------------|---------------------------------|---------------------------------|
A|---------------------------------|---------------------------------|---------------------------------|
E|-0---6---0---6---5---3---0-------|-0---0---0---0---0---0---0---0---|-0---6---0---6---5---3---0-------|
B|-----------------------------3---|---------------------------------|-----------------------------3---|


G|---------------------------------|---------------------------------|---------------------------------|
D|---------------------------------|---------------------------------|---------------------------------|
A|---------------------------------|---------------------------------|---------------------------------|
E|-0---0---0---0---0---0---0---0---|-0---6---0---6---5---3---0-------|-0---0---0---0---0---0---0---0---|
B|---------------------------------|-----------------------------3---|---------------------------------|

                                    [Pre-Chorus 3]
G|---------------------------------|---------------------------------|------------------------------|
D|---------------------------------|---------5---5-----------5---5---|------------------------------|
A|---------------------------------|---------------------------------|------------------------------|
E|-0---6---0---6---5---3---0-------|-3---3-----------3---3-----------|-3---3---3---6----0---1---2---|
B|-----------------------------3---|---------------------------------|------------------------------|


G|---------------------------------|------------------------------|---------------------------------|
D|---------5---5-----------5---5---|------------------------------|---------5---5-----------5---5---|
A|---------------------------------|------------------------------|---------------------------------|
E|-3---3-----------3---3-----------|-3---3---3---6----0---1---2---|-3---3-----------3---3-----------|
B|---------------------------------|------------------------------|---------------------------------|


G|------------------------------|---------------------------------|------------------------------|
D|------------------------------|---------5---5-----------5---5---|------------------------------|
A|------------------------------|---------------------------------|------------------------------|
E|-3---3---3---6----0---1---2---|-3---3-----------3---3-----------|-3---3---3---6----0---1---2---|
B|------------------------------|---------------------------------|------------------------------|

  [Chorus 2]
G|---------------------------------|---------------------------------|---------------------------------|
D|---------------------------------|---------------------------------|---------------------------------|
A|---------------------------------|---------------------------------|---------------------------------|
E|-6---6---6---6---6---6---6---6---|-6---6---6---6---6---6---6---6---|-6---6---6---6---6---6---6---6---|
B|---------------------------------|---------------------------------|---------------------------------|


G|---------------------------------|---------------------------------|---------------------------------|
D|---------------------------------|---------------------------------|---------------------------------|
A|---------------------------------|---------------------------------|---------------------------------|
E|-6---6---6---8---8---8---8---8---|-9---9---9---9---9---9---9---9---|-9---9---9---9---9---9---9---9---|
B|---------------------------------|---------------------------------|---------------------------------|

                                                                      [Bridge]
G|---------------------------------|---------------------------------|---------------------------------|
D|---------------------------------|---------------------------------|---------------------------------|
A|---------------------------------|---------------------------------|---------------------------------|
E|-9---9---9---9---9---9---9---9---|-9---9---9---9---9---9---9---9---|-0---0---------------------------|
B|---------------------------------|---------------------------------|---------------------------------|


G|---------------------------------|---------------------------------|------------------------------|
D|---------------------------------|---------------------------------|------------------------------|
A|---------------------------------|---------------------------------|------------------------------|
E|-0---0---------------------------|-0---0---------------------------|-0---0-----------0---0---1----|
B|---------------------------------|---------------------------------|------------------------------|


G|---------------------------------|---------------------------------|---------------------------------|
D|---------------------------------|---------------------------------|---------------------------------|
A|---------------------------------|---------------------------------|---------------------------------|
E|-0---0---------------------------|-0---0---------------------------|-0---0---------------------------|
B|---------------------------------|---------------------------------|---------------------------------|


G|------------------------------|---------------------------------|---------------------------------|
D|------------------------------|---------------------------------|---------------------------------|
A|------------------------------|---------------------------------|---------------------------------|
E|-0---0-----------0---0---1----|-0---0---------------------------|-0---0---------------------------|
B|------------------------------|---------------------------------|---------------------------------|


G|---------------------------------|------------------------------|---------------------------------|
D|---------------------------------|------------------------------|---------------------------------|
A|---------------------------------|------------------------------|---------------------------------|
E|-0---0---------------------------|-0---0-----------0---0---1----|-0---0---------------------------|
B|---------------------------------|------------------------------|---------------------------------|


G|---------------------------------|---------------------------------|------------------------------|
D|---------------------------------|---------------------------------|------------------------------|
A|---------------------------------|---------------------------------|------------------------------|
E|-0---0---------------------------|-0---0---------------------------|-0---0-----------0---0---1----|
B|---------------------------------|---------------------------------|------------------------------|


G|---------------------------------|---------------------------------|---------------------------------|
D|---------------------------------|---------------------------------|-5---5---5---5---5---5---5---5---|
A|---------------------------------|-------------------------3---5---|---------------------------------|
E|-3---3---3---3---3---3---3---3---|-3---3---3---3---3---3-----------|---------------------------------|
B|---------------------------------|---------------------------------|---------------------------------|


G|---------------------------------|---------------------------------|---------------------------------|
D|-5---5---5---5---5---------------|---------------------------------|---------------------------------|
A|---------------------5---3-------|---------------------------------|-------------------------3---5---|
E|-----------------------------6---|-3---3---3---3---3---3---3---3---|-3---3---3---3---3---3-----------|
B|---------------------------------|---------------------------------|---------------------------------|

                                                                      [Verse 4]
G|---------------------------------|---------------------------------|---------------------------------|
D|-5---5---5---5---5---5---5---5---|-5---5---5---5---5---5---5---5---|---------------------------------|
A|---------------------------------|---------------------------------|---------------------------------|
E|---------------------------------|---------------------------------|-0---0---0---0---0---0---0---0---|
B|---------------------------------|---------------------------------|---------------------------------|


G|---------------------------------|---------------------------------|---------------------------------|
D|---------------------------------|---------------------------------|---------------------------------|
A|---------------------------------|---------------------------------|---------------------------------|
E|-0---6---0---6---5---3---0-------|-0---0---0---0---0---0---0---0---|-0---6---0---6---5---3---0-------|
B|-----------------------------3---|---------------------------------|-----------------------------3---|


G|---------------------------------|---------------------------------|---------------------------------|
D|---------------------------------|---------------------------------|---------------------------------|
A|---------------------------------|---------------------------------|---------------------------------|
E|-0---0---0---0---0---0---0---0---|-0---6---0---6---5---3---0-------|-0---0---0---0---0---0---0---0---|
B|---------------------------------|-----------------------------3---|---------------------------------|


G|---------------------------------|---------------------------------|---------------------------------|
D|---------------------------------|---------------------------------|---------------------------------|
A|---------------------------------|---------------------------------|---------------------------------|
E|-0---6---0---6---5---3---0-------|-0---0---0---0---0---0---0---0---|-0---6---0---6---5---3---0-------|
B|-----------------------------3---|---------------------------------|-----------------------------3---|


G|---------------------------------|---------------------------------|---------------------------------|
D|---------------------------------|---------------------------------|---------------------------------|
A|---------------------------------|---------------------------------|---------------------------------|
E|-0---0---0---0---0---0---0---0---|-0---6---0---6---5---3---0-------|-0---0---0---0---0---0---0---0---|
B|---------------------------------|-----------------------------3---|---------------------------------|


G|---------------------------------|---------------------------------|---------------------------------|
D|---------------------------------|---------------------------------|---------------------------------|
A|---------------------------------|---------------------------------|---------------------------------|
E|-0---6---0---6---5---3---0-------|-0---0---0---0---0---0---0---0---|-0---6---0---6---5---3---0-------|
B|-----------------------------3---|---------------------------------|-----------------------------3---|

 [Pre-Chorus 4]
G|---------------------------------|------------------------------|---------------------------------|
D|---------------------------------|------------------------------|---------------------------------|
A|---------------------------------|------------------------------|---------------------------------|
E|-3---3---3---3---3---3---3---3---|-3---3---3---6----0---1---2---|-3---3---3---3---3---3---3---3---|
B|---------------------------------|------------------------------|---------------------------------|


G|------------------------------|---------------------------------|------------------------------|
D|------------------------------|---------------------------------|------------------------------|
A|------------------------------|---------------------------------|------------------------------|
E|-3---3---3---6----0---1---2---|-3---3---3---3---3---3---3---3---|-3---3---3---6----0---1---2---|
B|------------------------------|---------------------------------|------------------------------|

                                                                   [Chorus 3]
G|---------------------------------|------------------------------|---------------------------------|
D|---------------------------------|------------------------------|---------------------------------|
A|---------------------------------|------------------------------|---------------------------------|
E|-3---3---3---3---3---3---3---3---|-3---3---3---6----0---1---2---|-6---6---6---6---6---6---6---6---|
B|---------------------------------|------------------------------|---------------------------------|


G|---------------------------------|---------------------------------|---------------------------------|
D|---------------------------------|---------------------------------|---------------------------------|
A|---------------------------------|---------------------------------|---------------------------------|
E|-6---6---6---6---6---6---6---6---|-6---6---6---6---6---6---6---6---|-6---6---6---8---8---8---8---8---|
B|---------------------------------|---------------------------------|---------------------------------|


G|---------------------------------|---------------------------------|---------------------------------|
D|---------------------------------|---------------------------------|---------------------------------|
A|---------------------------------|---------------------------------|---------------------------------|
E|-9---9---9---9---9---9---9---9---|-9---9---9---9---9---9---9---9---|-9---9---9---9---9---9---9---9---|
B|---------------------------------|---------------------------------|---------------------------------|

                                    [Outro]
G|---------------------------------|---------------------------------|---------------------------------|
D|---------------------------------|---------------------------------|---------------------------------|
A|---------------------------------|---------------------------------|---------------------------------|
E|-9---9---9---9---9---9---9---9---|-0---0---------------------------|-0---0---------------------------|
B|---------------------------------|---------------------------------|---------------------------------|


G|---------------------------------|------------------------------|---------------------------------|
D|---------------------------------|------------------------------|---------------------------------|
A|---------------------------------|------------------------------|---------------------------------|
E|-0---0---------------------------|-0---0-----------0---0---1----|-0---0---------------------------|
B|---------------------------------|------------------------------|---------------------------------|


G|---------------------------------|---------------------------------|------------------------------|
D|---------------------------------|---------------------------------|------------------------------|
A|---------------------------------|---------------------------------|------------------------------|
E|-0---0---------------------------|-0---0---------------------------|-0---0-----------0---0---1----|
B|---------------------------------|---------------------------------|------------------------------|


G|---------------------------------|---------------------------------|---------------------------------|
D|---------------------------------|---------------------------------|---------------------------------|
A|---------------------------------|---------------------------------|---------------------------------|
E|-0---0---------------------------|-0---0---------------------------|-0---0---------------------------|
B|---------------------------------|---------------------------------|---------------------------------|


G|------------------------------|---------------------------------|---------------------------------|
D|------------------------------|---------------------------------|---------------------------------|
A|------------------------------|---------------------------------|---------------------------------|
E|-0---0-----------0---0---1----|-0---0---------------------------|-0---0---------------------------|
B|------------------------------|---------------------------------|---------------------------------|


G|---------------------------------|------------------------------|---------------------|
D|---------------------------------|------------------------------|-----------2---2-----|
A|---------------------------------|------------------------------|---------------------|
E|-0---0---------------------------|-0---0-----------0---0---1----|-0---0---------------|
B|---------------------------------|------------------------------|---------------------|


G|---------------------|---------------------|------------------------|---------------------|
D|-----------2---2-----|-----------2---2-----|--------------0---0-----|-----------2---2-----|
A|---------------------|---------------------|------------------------|---------------------|
E|-0---0---------------|-0---0---------------|-0---0----0-------------|-0---0---------------|
B|---------------------|---------------------|------------------------|---------------------|


G|---------------------|---------------------|------------------------|---------------------------------|
D|-----------2---2-----|-----------2---2-----|--------------0---0-----|-----------------2---2---2---2---|
A|---------------------|---------------------|------------------------|---------------------------------|
E|-0---0---------------|-0---0---------------|-0---0----0-------------|-0---0---0---0-------------------|
B|---------------------|---------------------|------------------------|---------------------------------|


G|---------------------------------|---------------------------------|------------------------------|
D|-----------------2---2---2---2---|-----------------2---2---2---2---|-----------------0---0---0----|
A|---------------------------------|---------------------------------|------------------------------|
E|-0---0---0---0-------------------|-0---0---0---0-------------------|-0---0---0---0----------------|
B|---------------------------------|---------------------------------|------------------------------|


G|---------------------------------|---------------------------------|---------------------------------|
D|-----------------2---2---2---2---|-----------------2---2---2---2---|-----------------2---2---2---2---|
A|---------------------------------|---------------------------------|---------------------------------|
E|-0---0---0---0-------------------|-0---0---0---0-------------------|-0---0---0---0-------------------|
B|---------------------------------|---------------------------------|---------------------------------|


G|---------------------------------|--------|
D|-----------------0---0---0-------|--------|
A|---------------------------------|--------|
E|-0---0---0---0-------------------|-0------|
B|-----------------------------3---|--------|
Suggest correction
Creating personal tab
Creating personal tab
You can edit any tab online and save it as your Personal.

You can edit, replace or remove any tab part or add personal notes – all changes will be seen only by you.

Personal tabs can be accessed anytime from any device, even offline.
Learn more »
Give kudos to tab author, rate the tab!
1 2 3 4 5
comments
print report bad tab
guest
You may want to rate the tab now too:
select rating
Wanna post a correction for this tab? Suggest correction