Oops, an error
Loading. Please wait.

A Moment Forever Tab

version 1
version 1

Whole song

Interactive

18,347 views 9 this week
1 commentread comment
1 2 3 4 5
x 4
add to favorites
launch autoscroll
font size
0
reset
how to read this tab
guitar tuner
Autoscroll
slow
fast
+/-
esc
set tempo
stop
Help us to improve Ultimate-Guitar.com Take our survey!
×
Author
Difficulty
Tuning
intermediate
D A D G B E
-------------------------------------------------------------------------------
                             A Moment Forever - Volbeat
-------------------------------------------------------------------------------
Tabbed by: Joakim Olsson
Email: the_pretender@live.se

Tuning: Drop D

Intro
e|--------------------------------------------------------------|
B|--------------------------------------------------------------|
G|--------------------------------------------------------------|
D|--------------------------------------------------------------|
A|-0-0-0-0-0-0-0-0-0-x6-0-0-7-7-777-7-7-777-7-7-777-7-7-777-----|
D|-0-0-0-0-0-0-0-0-0----0-0-7-7-777-7-7-777-7-7-777-7-7-777-----|

Riff 1 
e|---------------------------------------------------------|
B|---------------------------------------------------------|
G|--------10-7--12\---------12--10--5----------------------|
D|---------------------------------------------------------|
A|-0-x32--8--9--10\---0-x32-10--8---3----------------------|
D|-0------------------0------------------------------------|

Verse                   
e|--------------------------------------------------------------------|
B|--------------------------------------------------------------------|
G|--------------------------------------------------------------------|
D|--------------------------------------------------------------------|
A|-0-0-000----3-3-333----7-7-7-7--x3---0-0-000----3-3-333----7------7-|
D|-0-0-000----3-3-333----7-7-7-7-------0-0-000----3-3-333----7------7-|
                         P.M the 7's
Chorus Rythm                                       
e|-------------------------------------------------------|
B|-------------------------------------------------------|
G|-------------------------------------------------------|
D|-------------------------------------------------------|
A|-8--3--0----8--3--7----x2------------------------------|
D|-8--3--0----8--3--7------------------------------------|

Chorus Solo  I'm not 100% sure of this part but this is how I play it.
e|---------------------------------------------------------------------|
B|---------------------------------------------------------------------|
G|-------------------------------2-0-2-3-2-0---------------------------|
D|---3-2-3/5--5-5-5-5-3-2-3--------------------------------------------|
A|-1------------------------3---------------------x2-------------------|
D|---------------------------------------------------------------------|

Riff 1
Verse
Chorus x2

e|------------------------------------------------------------------|
B|------------------------------------------------------------------|
G|------------------------------------------------------------------|
D|-----------------0---------0-----|--x15---|-----------------------|
A|-0-0-0-0-0-0-0-0-0-x6-0-0--0-0-0--0-000000---7-7-777--7-7-777-----|
D|-0-0-0-0-0-0-0-0-0----0-0--0-0-0--0-000000---7-7-777--7-7-777-----|

Riff 1
Chorus x4

e|---------------------------------------------------------|
B|---------------------------------------------------------|
G|--------10-7--12\---------12--10--5--7/------------------|
D|---------------------------------------------------------|
A|-0-x32--8--9--10\---0-x32-10--8---3--5/------------------|
D|-0------------------0------------------------------------|


| /  slide up
| \  slide down
| h  hammer-on
| p  pull-off
| ~  vibrato
| +  harmonic
| x  Mute note

There you go! Email me for questions and corrections.
===============================================================================
Suggest correction
comments
print report bad tab
1 comment total.
+1 reply
wembly 61 Sep 11, 2011 07:17 AM

It's actually in D standard :P

guest
You may want to rate the tab now too:
select rating
Wanna post a correction for this tab? Suggest correction