Oops, an error
Loading. Please wait.

Always Wu Tab

2,427 views 9 this week
no commentswrite comment
1 2 3 4 5
excellent!
x 3
add to favorites
launch autoscroll
font size
0
reset
how to read this tab
guitar tuner
Tab Pro tools
  • play this tab
  • loop segment
  • change instrument
  • show fretboard
  • metronome
×
Best way to learn
"Always Wu"
Autoscroll
slow
fast
+/-
esc
set tempo
stop
Contributor
Volbeat - Always Wu

Tuning: D A D G B e

Enjoy!

Intro:
e|------------------------------------------------------------|
B|------------------------------------------------------------|
G|--------------------------7~--------------------------------|
D|--8~-----7~-----5~-----7~-7~-7-7-7-7-7-7-7-7-7-7-7-7-7-7-7-7|
A|--8~-----7~-----5~-----7~-5~-5-5-5-5-5-5-5-5-5-5-5-5-5-5-5-5|
D|--8~-8-8-7~-7-7-5~-5-5-7~-----------------------------------|

Verse 1:                                              X2
e|------------------------------------------------------|
B|------------------------------------------------------|
G|7~----------------------------------------------------|
D|7~-------------------------8~-------------------------|
A|5~-5-5-5-5-5-5-5-5-5-5-5-5-8~-------------------------|
D|---------------------------8~-8-8-8-8-8-8-8-8-8-8-8-8-|

  ------------------------------------------------------|
  ------------------------------------------------------|
  ------------------------------------------------------|
  5~-------------------------7~-------------------------|
  5~-------------------------7~-------------------------|
  5~-5-5-5-5-5-5-5-5-5-5-5-5-7~-7-7-7-7-7-7-7-7-7-7-7-7-|

Chorus:
e|----------------------------------------------------------|
B|----------------------------------------------------------|
G|----------------------------------------------------------|
D|-3~~-0~~-5~~-8-8-8-8-7-7-7-7-8-8-8-8-7-7-7-7--3~~-0~~-5~~-|
A|-3~~-0~~-5~~-8-8-8-8-7-7-7-7-8-8-8-8-7-7-7-7--3~~-0~~-5~~-|
D|-3~~-0~~-5~~-8-8-8-8-7-7-7-7-8-8-8-8-7-7-7-7--3~~-0~~-5~~-|

  -------------------------|
  -------------------------|
  -------------------------|
  -8~-----7~-----5~-----7~-|
  -8~-----7~-----5~-----7~-|
  -8~-8-8-7~-7-7-5~-5-5-7~-|

e|------------------------------------------------|
B|------------------------------------------------|
G|-7~---------------------------------7~----------|
D|-7~-7-7-7-7-7-7-7-7-7-7-7-7-7-7-7-7-7~-- BREAK -|
A|-5~-5-5-5-5-5-5-5-5-5-5-5-5-5-5-5-5-7~----------|
D|------------------------------------------------|

Verse 2:                                              X2
e|------------------------------------------------------|
B|------------------------------------------------------|
G|7~----------------------------------------------------|
D|7~-------------------------8~-------------------------|
A|5~-5-5-5-5-5-5-5-5-5-5-5-5-8~-------------------------|
D|---------------------------8~-8-8-8-8-8-8-8-8-8-8-8-8-|

  ------------------------------------------------------|
  ------------------------------------------------------|
  ------------------------------------------------------|
  5~-------------------------7~-------------------------|
  5~-------------------------7~-------------------------|
  5~-5-5-5-5-5-5-5-5-5-5-5-5-7~-7-7-7-7-7-7-7-7-7-7-7-7-|

Chorus:
e|----------------------------------------------------------|
B|----------------------------------------------------------|
G|----------------------------------------------------------|
D|-3~~-0~~-5~~-8-8-8-8-7-7-7-7-8-8-8-8-7-7-7-7--3~~-0~~-5~~-|
A|-3~~-0~~-5~~-8-8-8-8-7-7-7-7-8-8-8-8-7-7-7-7--3~~-0~~-5~~-|
D|-3~~-0~~-5~~-8-8-8-8-7-7-7-7-8-8-8-8-7-7-7-7--3~~-0~~-5~~-|

  -----------------------------------------------------|
  -----------------------------------------------------|
  -----------------------------------------------------|
  -8~-----7~-----5~-----7~-----8~-----7~-----5~-----7~-|
  -8~-----7~-----5~-----7~-----8~-----7~-----5~-----7~-|
  -8~-8-8-7~-7-7-5~-5-5-7~-7-7-8~-8-8-7~-7-7-5~-5-5-7~-|

e|--------------------------------------------------------------------------|
B|--------------------------------------------------------------------------|
G|--------------------------------------------------------------------------|
D|-3~~-------3p0-3--5-7-5-3h5p3p0-3~~--0~~--8~~--3~~-----3~~--0~~--8~~--3~~-|
A|-3~~--3h5-----------------------3~~--0~~--8~~--3~~-----3~~--0~~--8~~--3~~-|
D|-3~~----------------------------3~~--0~~--8~~--3~~-3h5-3~~--0~~--8~~--3~~-|

e|-----------------------------------------------------------------|
B|-----------------------------------------------------------------|
G|-----------------------------------------------------------------|
D|-5-5-5-5-5-5-5-5-5-5-5-5-5-5-5-5-3-3-3-3-3-3-3-3-3-3-3-3-3-3-3-3-|
A|-3-3-3-3-3-3-3-3-3-3-3-3-3-3-3-3-1-1-1-1-1-1-1-1-1-1-1-1-1-1-1-1-|
D|-----------------------------------------------------------------|

  ---------------------------------------------------------|
  ---------------------------------------------------------|
  ---------------------------------------------------------|
  -5-5-5-5-5-5-5-5-5-5-5-5-5-5-5-5-8~-----7~-----5~-----7~-|
  -3-3-3-3-3-3-3-3-3-3-3-3-3-3-3-3-8~-----7~-----5~-----7~-|
  ---------------------------------8~-8-8-7~-7-7-5~-5-5-7~-|

Chorus:
e|----------------------------------------------------------|
B|----------------------------------------------------------|
G|----------------------------------------------------------|
D|-3~~-0~~-5~~-8-8-8-8-7-7-7-7-8-8-8-8-7-7-7-7--3~~-0~~-5~~-|
A|-3~~-0~~-5~~-8-8-8-8-7-7-7-7-8-8-8-8-7-7-7-7--3~~-0~~-5~~-|
D|-3~~-0~~-5~~-8-8-8-8-7-7-7-7-8-8-8-8-7-7-7-7--3~~-0~~-5~~-|

  -------------------------|
  -------------------------|
  -------------------------|
  -8~-----7~-----5~-----7~-|
  -8~-----7~-----5~-----7~-|
  -8~-8-8-7~-7-7-5~-5-5-7~-|

Rhythm guitar: (SOLO)
e|-------------------------------------------------------------------------|
B|-------------------------------------------------------------------------|
G|-------------------------------------------------------------------------|
D|-3-3-3-3-3-3-3-3-3-3-3-3-0-0-0-0-0-0-0-0-0-0-0-0-5-5-5-5-5-5-5-5-5-5-5-5-|
A|-3-3-3-3-3-3-3-3-3-3-3-3-0-0-0-0-0-0-0-0-0-0-0-0-5-5-5-5-5-5-5-5-5-5-5-5-|
D|-3-3-3-3-3-3-3-3-3-3-3-3-0-0-0-0-0-0-0-0-0-0-0-0-5-5-5-5-5-5-5-5-5-5-5-5-|

  --------------------------------|
  --------------------------------|
  --------------------------------|
  8-8-8-8-7-7-7-7-8-8-8-8-7-7-7-7-|
  8-8-8-8-7-7-7-7-8-8-8-8-7-7-7-7-|
  8-8-8-8-7-7-7-7-8-8-8-8-7-7-7-7-|

SOLO:
e|--------------------------------------------------------------|
B|--------------------------------------------------------------|
G|-----------------------2-3--3/5-3-2h3p2-----------------------|
D|-3--5-6-7~--7-5-5-4--5------------------3--7p5p3-7p5p3-3-5-3~-|
A|--------------------------------------------------------------|
D|--------------------------------------------------------------|

Chorus:
e|------------------------------------------------------------------|
B|------------------------------------------------------------------|
G|------------------------------------------------------------------|
D|-3~~-0~~-5~~--8~-----7~-----5~-----7~-----8~-----7~-----5~-----7~-|
A|-3~~-0~~-5~~--8~-----7~-----5~-----7~-----8~-----7~-----5~-----7~-|
D|-3~~-0~~-5~~--8~-8-8-7~-7-7-5~-5-5-7~-7-7-8~-8-8-7~-7-7-5~-5-5-7~-|

  ---------------------------------|
  ---------------------------------|
  ---------------------------------|
  ----8~-----7~-----5~-----7~-3~~~-|
  ----8~-----7~-----5~-----7~-3~~~-|
  7-7-8~-8-8-7~-7-7-5~-5-5-7~~3~~~-|

Lyrics:

Sickness hide inside
Eating flesh by time
The saddest news I have in mind
But I know you man
A heart like no one else
Keeps the fire glow friend

[Chorus:]
If I loose you, with the smile you do
If I loose you, in the morning
In the final sleep
If I lose you
[ Lyrics from: http://www.lyricsmode.com/lyrics/v/volbeat/always_wu.html ]
Only one to know
And I promise you
Nothing change unless you say
But I know you man
A heart like no one else
Keeps the fire glow my friend

[Chorus]

Carry on cause there's no place to hide
Find the oath and feel
Our love for you is for all endless time
Alone you never be

[Chorus]
comments
We did not receive enough feedback on this tab! Please rate:
print report bad tab
1 2 3 4 5
I want to post or [tab]
guest
You may want to rate the tab now too:
select rating
Please do not post tabs as comments. Select "correction" instead!