Oops, an error
Loading. Please wait.

Back To Prom Chords

version 1
version 1

Whole song

Interactive

15,128 views 12 this week
no commentswrite comment
1 2 3 4 5
x 7
add to favorites
launch autoscroll
font size
0
reset
transpose
0
reset
display chords
guitar tuner
Autoscroll
slow
fast
+/-
esc
set tempo
stop
Help us to improve Ultimate-Guitar.com Take our survey!
×
Author
Difficulty
intermediate
-------------------------------------------------------------------------------
                             BACK TO PROM - Volbeat
-------------------------------------------------------------------------------
Tabbed by: shankelstoff
Email: bjorn.fr@hotmail.com

Standard tuning

Intro:
e|---------------------------------------------------------------------------|
B|---------------------------------------------------------------------------|
G|-0---0-0-------------------------------------------------------------------|
D|---------3-2-0--------0---2-2-2-2-0----------------------------------------|
A|--------------------3---------------3-0-----0-3----------------------------|
E|---------------------------------------------------------------------------|

e|---------------------------------------------------------------------------|
B|---------------------------------------------------------------------------|
G|-0-0-0-0-------------------------------------------------------------------|
D|---------3-2-3-----3-3-2---0-0-0-0---0-2---0-------------------------------|
A|-------------------------3---------3-----------3~--------------------------|
E|---------------------------------------------------------------------------|



C               G         F
Forever and ever, even today and after
C           G         F
I kept our picture forever
C                  G                   F
Back in the late 50's we went to the prom and kissing
C            G              F
But you went home with Tom Ripley

F                          G
Throw the guy a meat bone, put him on a train
A                        F
That's the way it should end
F                     G
Living the outskirts, 40 miles away
F         G           C
Where the lonely road ends

[interlude]
G-- D-- E-- A--
G-- F-- D-- E- D- C-

C               G         F
Forever and ever, even today and after
C         G              F
I still believe you can hear me
C                G                F
Believer, deceiver, the question lies beneath the
C        G             F
Letter I wrote you in late May

F                          G
Throw the guy a meat bone, put him on a train
A                        F
That's the way it should end
F                     G
Living the outskirts, 40 miles away
F         G           C   (Em)
Where the lonely road ends
F         G           C   (Em)
Where the lonely road ends
F         G               C (once - ring out)
Where the guitar gangsters sing

Please enter destructive critisizm below. (or constructive, if you're a nice person)
Suggest correction
comments
print report bad tab
guest
You may want to rate the tab now too:
select rating
Wanna post a correction for this tab? Suggest correction