Oops, an error
Loading. Please wait.

Doc Holliday Tab

version 1
version 1

Whole song

Interactive

18,295 views 51 this week
6 commentsread comments
1 2 3 4 5
accurate
x 16
add to favorites
launch autoscroll
font size
0
reset
how to read this tab
guitar tuner
Tab Pro tools
  • play this tab
  • loop segment
  • change instrument
  • show fretboard
  • metronome
×
Best way to learn
"Doc Holliday"
Autoscroll
slow
fast
+/-
esc
set tempo
stop
Contributor
Difficulty
Tuning
intermediate
D G C F A D
Doc Holliday

Tuning: D G C F A D

Intro
|-------------------------------------------------|---------|
|-------------------------------------------------|---------|
|-------------------------------------------------|---------|
|-------------------------------------------------|---------|
|-------------------------------------------------|-2--3--2-|
|-0--7~--5--3--5--3--0~--0--7~--5--3--5--3--0--1~-|-0--1--0-|

|------------------------------------------------|
|------------------------------------------------|
|------------------------------------------------|
|--------9----------9---9h10---------------------|
|---7----------7---------------7----7------------|
|-0---00---000---00---0------0---00---0000000000-|
PM-   --   ---   --   -      -   --   ----------

(Harmony)
|------------------------------------------------|
|------------------------------------------------|
|--------7----------7---7h9----------------------|
|---5----------5---------------5----5------------|
|------------------------------------------------|
|-0---00---000---00---0------0---00---0000000000-|
PM-   --   ---   --   -      -   --   ----------

|-------------------------------------------------------------------------|
|-------------------------------------------------------------------------|
|-------------------------------------------------------------------------|
|-9------9------9------9------9------7-10-9------9------9-----------------|
|-7------7------7------7------7------5--8-7------7------7-----------------|
|---0000---0000---0000---0000---0000--------0000---0000---00-0000-000-000-|
PM  ----   ----   ----   ----   ----        ----   ----   -- ---- --- ---

Pre-Verse
|----------------------------|----------|
|----------------------------|----------|
|----------------------------|----------|
|-10-9--10-10-10-10-10-9-7-9-|----------|
|--8-7---8--8--8--8--8-7-5-7-|-99999999-|
|----------------------------|-77777777-|
PM                             --------

Verse
|-------------------------------------------------|
|-------------------------------------------------|
|-------------------------------------------------|
|-------------------------------------------------|
|-7----7----7-----------5-8-7----7----7-----------|
|---00---00---000000000-------00---00---000000000-|
PM  --   --   ---------       --   --   ---------

|--------------------------------------------------|
|--------------------------------------------------|
|--------------------------------------------------|
|--------------------------------------------------|
|-7----7----7-----------5-8-7----7----7---33333333-|
|---00---00---000000000-------00---00---0-11111111-|
PM  --   --   ---------       --   --   - --------
  
|--------------------------------------------------|
|--------------------------------------------------|
|--------------------------------------------------|
|-9----9----9-----------7-10-9----9----9-----------|
|-7----7----7-----------5--8-7----7----7-----------|
|---00---00---000000000--------00---00---000000000-|
PM  --   --   ---------        --   --   ---------

|---------------------------------------------------|
|---------------------------------------------------|
|---------------------------------------------------|
|-9----9----9-----------7-10-9----9----9------------|
|-7----7----7-----------5--8-7----7----7---33333333-|
|---00---00---000000000--------00---00---0-11111111-|
PM  --   --   ---------        --   --   - --------

Chorus
|----------------------------------------------|
|----------------------------------------------|
|----------------------------------------------|
|----------------------------------------------|
|----------------------------------------------|
|-0--7~--5--7--8--7--0~--0--7~--5--7--8--7--1~-|

Fill
|----------------------------------------------------------|
|----------------------------------------------------------|
|----------------------------------------------------------|
|-9------9------9------9------9------7-10-9--9--9--9--9/10-|
|-7------7------7------7------7------5--8-7--7--7--7--7--8-|
|---0000---0000---0000---0000---0000-----------------------|
PM  ----   ----   ----   ----   ----

Pre-Solo/Backing Solo A
|-------------------------------------------------------------|
|-------------------------------------------------------------|
|-------------------------------------------------------------|
|-------------------------------------------------------------|
|-3-3333-333-333-3-3333-333-333-3-3333-333-333-3-3333-333-333-|
|-1-1111-111-111-1-1111-111-111-1-1111-111-111-1-1111-111-111-|
PM- ---- --- --- - ---- --- --- - ---- --- --- - ---- --- ---

|-------------------------------------------------------------|
|-------------------------------------------------------------|
|-------------------------------------------------------------|
|-------------------------------------------------------------|
|-2-2222-222-222-2-2222-222-222-2-2222-222-222-2-2222-222-222-|
|-0-0000-000-000-0-0000-000-000-0-0000-000-000-0-0000-000-000-|
PM- ---- --- --- - ---- --- --- - ---- --- --- - ---- --- ---

Backing Solo B
|-----------------------------------------------------------|
|-----------------------------------------------------------|
|-----------------------------------------------------------|
|-----------------------------------------------------------|
|-3-3-33-3-33-3-3-3-33-3-5-3-2-3-3-33-3-33-3-3-3-33-3-5-3-2-|
|-1-1-11-1-11-1-1-1-11---------1-1-11-1-11-1-1-1-11---------|
PM-   --   --   -   --         -   --   --   -   --

|---------------------------------------------------|---------|---------|
|---------------------------------------------------|---------|---------|
|---------------------------------------------------|---------|---------|
|---------------------------------------------------|---------|---------|
|-2-2-22-2-22-2-2-2-22-3-5-3-2-2-2-22-2-22-2-2-2-22-|-3-5-3-2-|-7-5-3-2-|
|-0-0-00-0-00-0-0-0-00---------0-0-00-0-00-0-0-0-00-|---------|---------|
PM-   --   --   -   --         -   --   --   -   --
comments
print report bad tab
6 comments total. Showing first comments.
+1 reply
itchie wrote on April 17 2013, 12:59 am

Thanks! That didn't take long.

0 reply
Crousah wrote on April 17 2013, 02:12 am

you're more than welcome and thank you right back for the 5 star rating! actually I have to apologize for the delay in posting, since I was done tabbing this song on 6th of april... I'm going to avoid that next time but this was my first try in submitting a tab so... ;-)

0 reply
Crousah wrote on May 17 2013, 02:04 am

since I got no clue how to update the tab, I guess
I'll have to post the two small corrections here:

Pre-Verse
|----------|
|----------|
|----------|
|-99999999-|
|-77777777-|
PM--------

Verse
|---------------------------------------------------|
|---------------------------------------------------|
|---------------------------------------------------|
|-9----9----9-----------7-10-9----9----9------------|
|-7----7----7-----------5--8-7----7----7---33333333-|
|---00---00---000000000--------00---00---0-11111111-|
PM -- -- --------- -- -- - --------

I want to post or [tab]
guest
You may want to rate the tab now too:
select rating
Please do not post tabs as comments. Select "correction" instead!