Oops, an error
Loading. Please wait.

Evelyn Tab

version 2
version 2

Whole song

Interactive

7,232 views 9 this week
1 commentread comment
1 2 3 4 5
excellent!
x 4
add to favorites
launch autoscroll
font size
0
reset
how to read this tab
guitar tuner
Tab Pro tools
  • play this tab
  • loop segment
  • change instrument
  • show fretboard
  • metronome
×
Best way to learn
"Evelyn"
Autoscroll
slow
fast
+/-
esc
set tempo
stop
Contributor
Difficulty
Tuning
intermediate
C# G# C# F# A# D#
                                   Song:Evelyn
                                  Artist:Volbeat
Tabbed by:Volbeat246

      This is by far the heaviest song off Volbeat's latest album Beyond Hell/Above
Heaven and I love playing it. Thanks to other tabs on this site for helping me get the ball
rolling with this song. This is my first tab and I think this is pretty close to 100%. 
If you catch any mistakes please comment and I'll try to fix them.

Intro:

Rhythm
D#|-------------------------------------------------------------------------|
A#|-------------------------------------------------------------------------|
F#|-------------------------------------------------------------------------|
C#|------------------------------------------------------------57-----------|
G#|0-00-00--3-00-00--5-66-66-6535--0-00-00--3-00-00--5-66-66-6535-----------|
C#|0-00-00--3-00-00--5-66-66-6535--0-00-00--3-00-00--5-66-66-65-------------|

Lead
D#|-------------------------------------------------------------------------|
A#|-------------------------------------------------------------------------|
F#|-------------------------------------------------------------------------|
C#|------------------------------------------------------------57-----------|
G#|0-------------------------------0---------------------------35-----------|
C#|0-------------------------------0----------------------------------------|

Rhythm plays 3 times. Lead is played first time then plays the same as Rhythm next 2 times.


Verse 1:

Both Guitars
D#|-------------------------------------------------------------------------|
A#|-------------------------------------------------------------------------|
F#|-------------------------------------------------------------------------|
C#|--------------3----------------------------------------------------------|
G#|0-----0------/-\-0-----0-----0---3h5-0h1-3h5-----------------------------|
C#|0-0-0-0-0-0-0000-0-0-0-0-0-0-0-x----x---x--------------------------------|
     . .   . . ....   . .   . .   .    .   .

D#|-------------------------------------------------------------------------|
A#|-------------------------------------------------------------------------|
F#|-------------------------------------------------------------------------|
C#|--------------3----------------------3-----------------------------------|
G#|0-----0------/-\-0-----6-----6------/-\-3--------------------------------|
C#|0-0-0-0-0-0-0000-0-0-0-6-6-6-6-6-6-5555-3-3-3----------------------------|
     . .   . . ....   . .   . .   . . ....   . .

D#|-------------------------------------------------------------------------|
A#|-------------------------------------------------------------------------|
F#|-------------------------------------------------------------------------|
C#|--------------3----------------------------------------------------------|
G#|0-----0------/-\-0-----0-----0---3h5-0h1-3h5-----------------------------|
C#|0-0-0-0-0-0-0000-0-0-0-0-0-0-0-x----x---x--------------------------------|
     . .   . . ....   . .   . .   .    .   .

D#|-------------------------------------------------------------------------|
A#|-------------------------------------------------------------------------|
F#|-------------------------------------------------------------------------|
C#|--------------3----------------------------------------------------------|
G#|0-----0------/-\-0-----6-----5-------------------------------------------|
C#|0-0-0-0-0-0-0000-0-0-0-6-----5-------------------------------------------|
     . .   . . ....   . .

Repeat all of verse once.

Bridge 1: (intro riff)

Both Guitars
D#|-------------------------------------------------------------------------|
A#|-------------------------------------------------------------------------|
F#|-------------------------------------------------------------------------|
C#|------------------------------------------------------------57-----------|
G#|0-00-00--3-00-00--5-66-66-6535--0-00-00--3-00-00--5-66-66-6535-----------|
C#|0-00-00--3-00-00--5-66-66-6535--0-00-00--3-00-00--5-66-66-65-------------|

Repeat once.

Verse 2:

Both Guitars

D#|-------------------------------------------------------------------------|
A#|-------------------------------------------------------------------------|
F#|-------------------------------------------------------------------------|
C#|--------------3----------------------------------------------------------|
G#|0-----0------/-\-0-----0-----0---3h5-0h1-3h5-----------------------------|
C#|0-0-0-0-0-0-0000-0-0-0-0-0-0-0-x----x---x--------------------------------|
     . .   . . ....   . .   . .   .    .   .

D#|-------------------------------------------------------------------------|
A#|-------------------------------------------------------------------------|
F#|-------------------------------------------------------------------------|
C#|--------------3----------------------3-----------------------------------|
G#|0-----0------/-\-0-----6-----6------/-\-3--------------------------------|
C#|0-0-0-0-0-0-0000-0-0-0-6-6-6-6-6-6-5555-3-3-3----------------------------|
     . .   . . ....   . .   . .   . . ....   . .

D#|-------------------------------------------------------------------------|
A#|-------------------------------------------------------------------------|
F#|-------------------------------------------------------------------------|
C#|--------------3----------------------------------------------------------|
G#|0-----0------/-\-0-----0-----0---3h5-0h1-3h5-----------------------------|
C#|0-0-0-0-0-0-0000-0-0-0-0-0-0-0-x----x---x--------------------------------|
     . .   . . ....   . .   . .   .    .   .

D#|-------------------------------------------------------------------------|
A#|-------------------------------------------------------------------------|
F#|-------------------------------------------------------------------------|
C#|--------------3----------------------------------------------------------|
G#|0-----0------/-\-0-----6-----5-------------------------------------------|
C#|0-0-0-0-0-0-0000-0-0-0-6-----5-------------------------------------------|
     . .   . . ....   . .

Chorus:

Rhythm

D#|-------------------------------------------------|
A#|-------------------------------------------------|
F#|4-44444-44449-99999-99992-22222-22224--44444-4444|
C#|4-44444-44449-99999-99992-22222-22224--44444-4444|
G#|2-22222-22227-77777-77770-00000-00002--22222-2222|
C#|-------------------------------------------------|Repeat once but end
                                                       |   second time with
                                                       |
D#|------------------------|                           |
A#|------------------------|                           |
F#|------------------------|                           |
C#|------------------------|                           |
G#|5-55555-5555111111111111| <-------------------------|
C#|5-55555-5555111111111111|


Lead

D#|----------------------------------------------------------------------|
A#|----------------------------------------------------------------------|
F#|-------------7h999997-7h9p76-6666----------7-7--------7h999997-7h9p76-|
C#|/9-9999-9-7-9---------------------9-7-7h9-9-9-9--9-7-9----------------|
G#|----------------------------------------------------------------------|
C#|----------------------------------------------------------------------|
                                             . .

D#|-----------------------------------------------------------|
A#|-----------7-77777-7777------------------------------------|
F#|6666-6-7-9-------------7-77777-7777------------------------|
C#|-----------------------------------666666666666------------|
G#|-----------------------------------------------------------|
C#|-----------------------------------------------------------|

Bridge 2:

D#|------------------------------------------------------------|
A#|------------------------------------------------------------|
F#|------------------------------------------------------------|
C#|------------------------------------------------------------|
G#|------------3h5-5-5h6-6-8p6p5h6-----------------------------|
C#|000000000000------------------------------------------------|
   ............

Verse 3:

Both Guitars

D#|-------------------------------------------------------------------------|
A#|-------------------------------------------------------------------------|
F#|-------------------------------------------------------------------------|
C#|--------------3----------------------------------------------------------|
G#|0-----0------/-\-0-----0-----0---3h5-0h1-3h5-----------------------------|
C#|0-0-0-0-0-0-0000-0-0-0-0-0-0-0-x----x---x--------------------------------|
     . .   . . ....   . .   . .   .    .   .

D#|-------------------------------------------------------------------------|
A#|-------------------------------------------------------------------------|
F#|-------------------------------------------------------------------------|
C#|--------------3----------------------3-----------------------------------|
G#|0-----0------/-\-0-----6-----6------/-\-3--------------------------------|
C#|0-0-0-0-0-0-0000-0-0-0-6-6-6-6-6-6-5555-3-3-3----------------------------|
     . .   . . ....   . .   . .   . . ....   . .

D#|-------------------------------------------------------------------------|
A#|-------------------------------------------------------------------------|
F#|-------------------------------------------------------------------------|
C#|--------------3----------------------------------------------------------|
G#|0-----0------/-\-0-----0-----0---3h5-0h1-3h5-----------------------------|
C#|0-0-0-0-0-0-0000-0-0-0-0-0-0-0-x----x---x--------------------------------|
     . .   . . ....   . .   . .   .    .   .

D#|-------------------------------------------------------------------------|
A#|-------------------------------------------------------------------------|
F#|-------------------------------------------------------------------------|
C#|--------------3----------------------------------------------------------|
G#|0-----0------/-\-0-----6-----5-------------------------------------------|
C#|0-0-0-0-0-0-0000-0-0-0-6-----5-------------------------------------------|
     . .   . . ....   . .

Chorus 2:

Rhythm

D#|-------------------------------------------------|
A#|-------------------------------------------------|
F#|4-44444-44449-99999-99992-22222-22224--44444-4444|
C#|4-44444-44449-99999-99992-22222-22224--44444-4444|
G#|2-22222-22227-77777-77770-00000-00002--22222-2222|
C#|-------------------------------------------------|Repeat once but end
                                                       |   second time with
                                                       |
D#|------------------------|                           |
A#|------------------------|                           |
F#|------------------------|                           |
C#|------------------------|                           |
G#|5-55555-5555111111111111| <-------------------------|
C#|5-55555-5555111111111111|


Lead

D#|----------------------------------------------------------------------|
A#|----------------------------------------------------------------------|
F#|-------------7h999997-7h9p76-6666----------7-7--------7h999997-7h9p76-|
C#|/9-9999-9-7-9---------------------9-7-7h9-9-9-9--9-7-9----------------|
G#|----------------------------------------------------------------------|
C#|----------------------------------------------------------------------|
                                             . .

D#|-----------------------------------------------------------|
A#|-----------7-77777-7777------------------------------------|
F#|6666-6-7-9-------------7-77777-7777------------------------|
C#|-----------------------------------666666666666------------|
G#|-----------------------------------------------------------|
C#|-----------------------------------------------------------|

Breakdown Bridge:

D#|-----|
A#|-----|
F#|-----| repeat as necessary
C#|-----|
G#|00---|
C#|00---|
             end with this
D#|---------------------------|
A#|---------------------------|
F#|---------------------------|
C#|---------------------------|
G#|---------------------------|
C#|000000000000000000000000---|
   ........................

Ending Chorus:

Rhythm

D#|-------------------------------------------------|
A#|-------------------------------------------------|
F#|4-44444-44449-99999-99992-22222-22224--44444-4444|
C#|4-44444-44449-99999-99992-22222-22224--44444-4444|
G#|2-22222-22227-77777-77770-00000-00002--22222-2222|
C#|-------------------------------------------------|Repeat 3 TIMES! but end
                                                       |   4th time with
                                                       |
D#|------------------------|                           |
A#|------------------------|                           |
F#|------------------------|                           |
C#|------------------------|                           |
G#|5-55555-5555111111111111| <-------------------------|
C#|5-55555-5555111111111111|


Lead

D#|----------------------------------------------------------------------|
A#|----------------------------------------------------------------------|
F#|-------------7h999997-7h9p76-6666----------7-7--------7h999997-7h9p76-|
C#|/9-9999-9-7-9---------------------9-7-7h9-9-9-9--9-7-9----------------|
G#|----------------------------------------------------------------------|
C#|----------------------------------------------------------------------|
                                             . .

D#|-----------------------------------------------------------|
A#|-----------7-77777-7777------------------------------------|
F#|6666-6-7-9-------------7-77777-7777------------------------|
C#|-----------------------------------666666666666------------|
G#|-----------------------------------------------------------|
C#|-----------------------------------------------------------|

  The lead stays the same throughout, or at least thats how I play it.

Outro: (intro riff)


D#|-------------------------------------------------------------------------|
A#|-------------------------------------------------------------------------|
F#|-------------------------------------------------------------------------|
C#|------------------------------------------------------------57-----------|
G#|0-00-00--3-00-00--5-66-66-6535--0-00-00--3-00-00--5-66-66-6535-----------|
C#|0-00-00--3-00-00--5-66-66-6535--0-00-00--3-00-00--5-66-66-65-------------|

Repeat once
comments
print report bad tab
1 comment total.
0 reply
niggl90 wrote on October 10 2011, 04:14 am

nice one !

I want to post or [tab]
guest
You may want to rate the tab now too:
select rating
Please do not post tabs as comments. Select "correction" instead!