Oops, an error
Loading. Please wait.

Everythings Still Fine Tab

4,765 views 3 this week
2 commentsread comments
1 2 3 4 5
please rate
add to favorites
launch autoscroll
font size
0
reset
how to read this tab
guitar tuner
Tab Pro tools
  • play this tab
  • loop segment
  • change instrument
  • show fretboard
  • metronome
×
Best way to learn
"Everythings Still Fine"
Autoscroll
slow
fast
+/-
esc
set tempo
stop
Contributor
Difficulty
Tuning
intermediate
D A D G B E
-------------------------------------------------------------------------------
			    VOLBEAT - EVERYTHING'S STILL FINE
	             from the album - THE STRENGTH/THE SOUND/THE SONGS
-------------------------------------------------------------------------------
Tabbed by: ominousnocturna
Email: jimmie_streck@comcast.net

Tuning: DADGBe

Intro: repeat 3X
e|------------------------------------------------------------------------------------------------|
B|------------------------------------------------------------------------------------------------|
G|------------------------------------------------------------------------------------------------|
D|--7-8-7-5-5-5h7p5\4----7-8-7-5-5-5h7p5\4----------7-8-7-5-7-8/10/8-7----7-8-7---7-8-7---33222---|
A|-5--------------------5--------------------5-6---5---------------------5-------5--------110000--|
D|0--------------------0--------------------------0---------------------0----------------------0--|



Rythm played behind the intro - starts with second measure of the intro - repeat 2X
e|------------------------------------------------------------------------------------------------|
B|------------------------------------------------------------------------------------------------|
G|------------------------------------------------------------------------------------------------|
D|---77777777777777-555-7777777777777777-888-7777777777777777777-555-777777777777777777-3333222---|
A|00-55555555555555-333-5555555555555555-666-5555555555555555555-333-555555555555555555-11110000--|
D|00-00000000000000-----0000000000000000-----0000000000000000000-----000000000000000000--------0--|




Verses: repeat 4X
e|-------------------------------------------------------|
B|-------------------------------------------------------|
G|-------------------------------------------------------|
D|-------------------------------------------------------|
A|-----------------------333------------------------353--|
D|00-00-00-0-0-0-0-0-0-0-111-00-00-00-0-0-0-0-0-0-0-131--|
     xx    x   x   x   x        xx    x   x   x   x    



Chorus: repeat 2x
e|-------------------------------------------------------|
B|-------------------------------------------------------|
G|-------------------------------------------------------|
D|/55555555\11111111/33-33-33-3-3-3-3-3-3-3--------------|
A|/55555555\11111111/33-33-33-3-3-3-3-3-3-3--------------|
D|/55555555\11111111/33-33-33-3-3-3-3-3-3-3--------------|
                        xx    x   x   x   x



Verses: repeat 3X
e|-------------------------------------------------------|
B|-------------------------------------------------------|
G|-------------------------------------------------------|
D|-------------------------------------------------------|
A|-----------------------333------------------------353--|
D|00-00-00-0-0-0-0-0-0-0-111-00-00-00-0-0-0-0-0-0-0-131--|
     xx    x   x   x   x        xx    x   x   x   x    



Chorus: repeat 4x
e|-------------------------------------------------------|
B|-------------------------------------------------------|
G|-------------------------------------------------------|
D|/55555555\11111111/33-33-33-3-3-3-3-3-3-3--------------|
A|/55555555\11111111/33-33-33-3-3-3-3-3-3-3--------------|
D|/55555555\11111111/33-33-33-3-3-3-3-3-3-3--------------|
                        xx    x   x   x   x



e|------------------------------------------------------------------------------------------------|
B|------------------------------------------------------------------------------------------------|
G|------------------------------------------------------------------------------------------------|
D|--7-8-7-5-5-5h7p5\4----7-8-7-5-5-5h7p5\4----------7-8-7-5-7-8/10/8-7----7-8-7---7-8-7---33222---|
A|-5--------------------5--------------------5-6---5---------------------5-------5--------110000--|
D|0--------------------0--------------------------0---------------------0----------------------0--|




Verses: repeat 3X
e|-------------------------------------------------------|
B|-------------------------------------------------------|
G|-------------------------------------------------------|
D|-------------------------------------------------------|
A|-----------------------333------------------------353--|
D|00-00-00-0-0-0-0-0-0-0-111-00-00-00-0-0-0-0-0-0-0-131--|
     xx    x   x   x   x        xx    x   x   x   x    



Chorus: repeat 4x playing the last chord with the slide at the very end.
e|-------------------------------------------------------|
B|-------------------------------------------------------|
G|-------------------------------------------------------|
D|/55555555\11111111/33-33-33-3-3-3-3-3-3-3-5\-----------|
A|/55555555\11111111/33-33-33-3-3-3-3-3-3-3-5\-----------|
D|/55555555\11111111/33-33-33-3-3-3-3-3-3-3-5\-----------|
                        xx    x   x   x   x





| /  slide up
| \  slide down
| h  hammer-on
| p  pull-off
| ~  vibrato
| +  harmonic
| x  Mute note
===============================================================================
comments
We did not receive enough feedback on this tab! Please rate:
print report bad tab
1 2 3 4 5
2 comments total.
0 reply
ominousnocturna wrote on November 25 2008, 09:06 pm

Verses: repeat 4X
e|-------------------------------------------------------|
B|-------------------------------------------------------|
G|-------------------------------------------------------|
D|-------------------------------------------------------|
A|-----------------------111------------------------131--|
D|00-00-00-0-0-0-0-0-0-0-111-00-00-00-0-0-0-0-0-0-0-131--|
xx x x x x xx x x x x

Verses: repeat 3X
e|-------------------------------------------------------|
B|-------------------------------------------------------|
G|-------------------------------------------------------|
D|-------------------------------------------------------|
A|-----------------------111------------------------131--|
D|00-00-00-0-0-0-0-0-0-0-111-00-00-00-0-0-0-0-0-0-0-131--|
xx x x x x xx x x x x

Verses: repeat 3X
e|-------------------------------------------------------|
B|-------------------------------------------------------|
G|-------------------------------------------------------|
D|-------------------------------------------------------|
A|-----------------------111------------------------131--|
D|00-00-00-0-0-0-0-0-0-0-111-00-00-00-0-0-0-0-0-0-0-131--|
xx x x x x xx x x x x

+1 reply
4String_Slinger wrote on August 21 2014, 08:55 am

this sounds close..... but they usually play in D

with the exception i found so far of EVELYN

which was C# F# B E G# C#

i jam with these MP3's almost constantly. trust me they play in D

I want to post or [tab]
guest
You may want to rate the tab now too:
select rating
Please do not post tabs as comments. Select "correction" instead!