Oops, an error
Loading. Please wait.

Fallen Tab

version 2
version 2

Whole song

  • Includes solo, some other parts are changed. The c... Show more

Interactive

89,127 views 162 this week
16 commentsread comments
1 2 3 4 5
excellent!
x 36
add to favorites
launch autoscroll
font size
0
reset
how to read this tab
guitar tuner
Autoscroll
slow
fast
+/-
esc
set tempo
stop
Help us to improve Ultimate-Guitar.com Take our survey!
×
Author
-------------------------------------------------------------------------------
                             Fallen - Volbeat
-------------------------------------------------------------------------------
Tabbed by:Flexus13
Email:

Hi guys,

this song is not in Dropped-D as the other tabs say, its simply Standard tuning but ONE
STEP DOWN(!!) if you want to
play it in the original key...

Tuning: (Standard  - ONE STEP DOWN) DGCFAD


[Intro riff]

Guitar 1

D|---------------------------------------------------------------------------|
A|---------------------------------------------------------------------------|
F|---------------------------------------------------------------------------|
C|----------------------------------13p11-------11----11---13---14---13-11-13|
G|-9/11-----11-----11-----------11----0-----0-0-0-0-0-0--0-0--0-0--0-0--0--0-|
D|-0----0-0-0--0-0-0--0-0-0-0-0-0-0-0----------------------------------------|
        x x    x x    x x x x x   x x       x x   x x    x   x     x

Guitar 2 - clean (comes in after Guitar 1 played the intro riff 2 times)

D|-0----------------------------------0-------------------------------------|
A|-0----------------------------------2-------------------------------------|
F|-1----------------------------------2-------------------------------------|
C|-2----------------------------------2-------------------------------------|
G|-2----------------------------------0-------------------------------------|
D|-0------------------------------------------------------------------------|


|-At the very end of the intro---|
|--------------------------------|
|--------------------------------|
|--------------------------------|
|-7-7-7-7-7-7-7-7-6-6-6-6-4-4-4-4|
|-5-5-5-5-5-5-5-5-4-4-4-4-2-2-2-2|

  x x x x x x x x x x x x x x x x


[Intro to Verse Riff]

Guitar 1

D|-------------------------------------------------------------------------|
A|-------------------------------------------------------------------------|
F|-------------------------------------------------------------------------|
C|-------------------------------13p11-11-11-11-11-------------------------|
G|-9/11-11-11-11-11-11-11-11-11-------------------14-12-11-11--------------|
D|-------------------------------------------------------------------------|

Guitar 2 - Distortion (The strumming pattern isnt too hard, its quite similar to the intro)

D|--------------------------------------------------------------------------|
A|--------------------------------------------------------------------------|
F|--------------------------------2-----------------------------------------|
C|-2------------------------------2-----------------------------------------|
G|-2------------------------------0-----------------------------------------|
D|-0------------------------------------------------------------------------|


Guitar 1

D|-------------------------------------------------------------------------|
A|-------------------------------------------------------------------------|
F|-------------------------------------------------------------------------|
C|------------------------------13p11-11-11-11-11-13-14-14-14--------------|
G|-9/11-11-11-11-11-11-11-11-11--------------------------------------------|
D|-------------------------------------------------------------------------|

Guitar 2 - Distortion

D|--------------------------------------------------------------------------|
A|--------------------------------------------------------------------------|
F|------------------------------2-------------------------------------------|
C|-2----------------------------2-------------------------------------------|
G|-2----------------------------0-------------------------------------------|
D|-0------------------------------------------------------------------------|


Guitar 1 (Play it 2 times!)

D|-------------------------------------------------------------------------|
A|-------------------------------------------------------------------------|
F|-11h13-13-13-13-13-13-11-11----------------------------------------------|
C|----------------------------14-13-13-11h13p11-11-11-11-11-11-------------|
G|-------------------------------------------------------------14-12-11----|
D|-------------------------------------------------------------------------|

Guitar 2 - Distortion

D|--------------------------------------------------------------------------|
A|--------------------------------------------------------------------------|
F|--------------------------------------2-----------------------------------|
C|-2------------------------------------2-----------------------------------|
G|-2------------------------------------0-----------------------------------|
D|-0------------------------------------------------------------------------|


[Verse Riff]

(The strumming pattern isnt too hard, its quite similar to the intro)

D|-------------------------------------------------------------------------------|
A|-------------------------------------------------------------------------------|
F|--------------------------------2----------------------------------------------|
C|-2------------------------------2----------------------------------------------|
G|-2------------------------------0----------------------------------------------|
D|-0-----------------------------------------------------------------------------|

At the second part of the verse, Guitar 2 adds the intro riff)


[Chorus]

Guitar 1

D|-------------------------------------------------------------------------------|
A|-------------------------------------------------------------------------------|
F|-----9-9-9-9-9-9-9-9-9---------------------------------------------------------|
C|-----9-9-9-9-9-9-9-9-9-9-9-9-9-9-9-9-9-11-11-11-11-11-11-9-9-9-9-9-9-9-9-7-7-7-|
G|-----7-7-7-7-7-7-7-7-7-9-9-9-9-9-9-9-9-11-11-11-11-11-11-9-9-9-9-9-9-9-9-7-7-7-|
D|-----0-0-0-0-0-0-0-0-0-7-7-7-7-7-7-7-7-9--9--9--9--9--9--7-7-7-7-7-7-7-7-5-5-5-|

Guitar 2

D|-------------------------------------------------------------------------------|
A|-------------------------------------------------------------------------------|
F|-----9-9-9-9-9-9-9-9-9-11-11-11-11-11--13-13-13-13-13-13-11-11-11-11-11--------|
C|-----x-x-x-x-x-x-x-x-x-x--x--x--x--x---x--x--x--x--x--x--x--x--x--x--x---7-7-7-|
G|-----7-7-7-7-7-7-7-7-7-9--9--9--9--9---11-11-11-11-11-11-9--9--9--9--9---7-7-7-|
D|-------------------------------------------------------------------------5-5-5-|

See me fallen, down and  lonely, are the angles on their   way, I'm in the dirt

Guitar 1

D|-----------------------------------------------------------------------------------|
A|-----------------------------------------------------------------------------------|
F|-----9-9-9-9-9-9-9-9-9-------------------------------------------------------------|
C|-----9-9-9-9-9-9-9-9-9-9-9-9-9-9-9-9-9-----11-11-11-11-11-11-9-9-9-9-9-9-9-9-7-7-7-|
G|-----7-7-7-7-7-7-7-7-7-9-9-9-9-9-9-9-9-----11-11-11-11-11-11-9-9-9-9-9-9-9-9-7-7-7-|
D|-----0-0-0-0-0-0-0-0-0-7-7-7-7-7-7-7-7-----9--9--9--9--9--9--7-7-7-7-7-7-7-7-5-5-5-|

Guitar 2

D|-----------------------------------------------------------------------------------|
A|-----------------------------------------------------------------------------------|
F|-----9-9-9-9-9-9-9-9-9-11-11-11-11-11------13-13-13-13-13-13-11-11-11-11-11--------|
C|-----x-x-x-x-x-x-x-x-x-x--x--x--x--x-------x--x--x--x--x--x--x--x--x--x--x---7-7-7-|
G|-----7-7-7-7-7-7-7-7-7-9--9--9--9--9-------11-11-11-11-11-11-9--9--9--9--9---7-7-7-|
D|-----------------------------------------------------------------------------5-5-5-|

hear me screaming, see me bleeding, cause the days no more the same without    you...
  

The rest of the song consists of these riffs, so it should be no problem for you to
figure out the rest...
 

************************************

| x  Dead note
| h  Hammer-on
| p  Pull-off
| /  Slide up  

************************************
Suggest correction
comments
print report bad tab
16 comments total. Showing first comments.
+6 reply
Jareds212 10 wrote on July 6 2011, 01:19 pm

Good tab. Would be awesome if you could tab the solo for us dummies.

+8 reply
conman316 10 wrote on July 21 2011, 11:42 pm

post solo plz, need it.

0 reply
metallicrocks 10 wrote on August 17 2011, 03:39 pm

is it drop D or 1 step down?

guest
You may want to rate the tab now too:
select rating
Wanna post a correction for this tab? Suggest correction