Oops, an error
Loading. Please wait.

Heaven Nor Hell Tab

version 1
version 1

Interactive

71,654 views 96 this week
9 commentsread comments
1 2 3 4 5
x 11
add to favorites
launch autoscroll
font size
0
reset
how to read this tab
guitar tuner
Autoscroll
slow
fast
+/-
esc
set tempo
stop
Help us to improve Ultimate-Guitar.com Take our survey!
×
Author
Difficulty
novice
Tabbed by: PatrickSG400
Tuning: Standart E

Sorry guys, couldnt figure out the bridge but I hope you gonna have fun with the rest...

[INTRO/STROPHE-PART 1]
e|---------------------------------------------------------------------------|
B|---------------------------------------------------------------------------|
G|-------8-8---8-8---8-8-----8-13-13---8-8-----------------------------------|
D|-------8-8---8-8---8-8-----8-13-13---8-8---8-8-----------------------------|
A|-------6-6---6-6---6-6-----6/11-11---6-6---8-8-----------------------------|
E|-------------------------------------------6-6-----------------------------|

[STROPHE PART 2]
e|-----------------------------------------------------------------------------------------------------------|
B|-----------------------------------------------------------------------------------------------------------|
G|-------8-8-8-8-8-8-8-8-8-8-8-8-8-8-8-8-1-3-1-3-1-3-1-3-8-8-8-8---------------------------------------------|
D|-------8-8-8-8-8-8-8-8-8-8-8-8-8-8-8-8-1-3-1-3-1-3-1-3-8-8-8-8-8-8-8-8-8-8-8-8-8-8-------------------------|
A|-------6-6-6-6-6-6-6-6-6-6-6-6-6-6-6-6-1-1-1-1-1-1-1-1-6-6-6-6-8-8-8-8-8-8-8-8-8-8-------------------------|
E|---------------------------------------------------------------6-6-6-6-6-6-6-6-6-6-------------------------|
P.M.     . . . . . . . . . . . . . . . . . . . . . . . . . . . . . . . . . . . . . .

[Chorus]
e|-------------------------------------------------------------------------------------------------------|
B|-------------------------------------------------------------------------------------------------------|
G|-------------------------------------------8-8-8-8-8-8-8-8---------------------------------------------|
D|-------6-6-6-6-6-6-6-6---8-8-8-8-8-8-8-8---8-8-8-8-8-8-8-8---6-6-6-6-6-6-6-6---------------------------|
A|-------6-6-6-6-6-6-6-6---8-8-8-8-8-8-8-8---6-6-6-6-6-6-6-6---6-6-6-6-6-6-6-6---------------------------|
E|-------4-4-4-4-4-4-4-4---6-6-6-6-6-6-6-6---------------------4-4-4-4-4-4-4-4---------------------------|

************************************

| /  Slide up

************************************
Suggest correction
comments
print report bad tab
9 comments total. Showing first comments.
+1 reply
niggl90 162 Jan 26, 2011 03:22 AM

all volbeat-songs are in Drop D ;)

+1 reply
HostileDrummer 180 Feb 22, 2011 01:39 PM

zo is dat niggl!;)

0 reply
niggl90 162 Feb 24, 2011 05:15 AM

i mean D-Tuning and not Drop D, my mistake :D

guest
You may want to rate the tab now too:
select rating
Wanna post a correction for this tab? Suggest correction