Oops, an error
Loading. Please wait.

Heaven Nor Hell Bass Tab

version 2
version 2

Whole song

Interactive

2,846 views 24 this week
no commentswrite comment
1 2 3 4 5
x 5
add to favorites
launch autoscroll
font size
0
reset
guitar tuner
Autoscroll
slow
fast
+/-
esc
set tempo
stop
Help us to improve Ultimate-Guitar.com Take our survey!
×
Author
Difficulty
Tuning
intermediate
D G C F A D
credit to songsterr for sheet music/tabs

Intro - drums/guitar for 2 bars then - (hold last 8 on last bar 2nd time thorugh going 
into the final bars)
F|-----------------|---------|--------------------|X2
C|-----------------|---------|-8-8----------------|X2
G|-8-8---8-8---8-8-|-------8-|-------8-8----------|X2
D|-----------------|---------|-------------8-8~---|X2

F|----------------|-----------------|
C|----------------|-----------------|
G|----------------|-----------------|
D|~-8-8-8-8-8-8-8-|-8-8-8-8-8-8-8-8-|

Harp Solo - X2
F|-----------------|----------------|-----------------|-----------------|
C|-----------------|----------------|-8-8-------------|-----------------|
G|-8---8---8-8-8-8-|-8---8---8-8-8--|-------8-8-------|-----------------|
D|-----------------|----------------|-------------8-8-|---8-8-8-8-8-8-8-|

Verse 1 - (2nd time through on first bars, hold last note a little longer)
F|-----------------|---------|--------------------|X2
C|-----------------|---------|-8-8----------------|X2
G|-8-8---8-8---8-8-|-------8-|-------8-8----------|X2
D|-----------------|---------|-------------8-8~---|X2
(change last 8 to a 6 2nd time through for bars below)
F|-----------------|-----------------|-----------------|-------------------|X2
C|-----------------|-----------------|-8-8-8-----------|-------------------|X2
G|-8-8-8-8-8-8-8-8-|-8-8-8-8-8-8-8-8-|-------8-8-8-----|-------------------|X2
D|-----------------|-----------------|-------------8-8-|-8-8-8-8-8-8-8-8---|X2

Chorus 1 -
F|-----------------|----------------|-----------------|------------------|X2
C|-----------------|----------------|-----------------|------------------|X2
G|-----------------|----------------|-8---8---8-8-8-8-|------------------|X2
D|-6---6---6-6-6-6-|-8---8---8-8-8--|-----------------|-6---6---6-6-6----|X2

F|------------------|----------------|----------------|
C|------------------|----------------|----------------|
G|------------------|----------------|----------------|
D|--6---6---6-6-6-6-|-8---8---8-8-8--|-8---8---8-8-8--|

Harp Solo - X2
F|-----------------|----------------|-----------------|-----------------|
C|-----------------|----------------|-8-8-------------|-----------------|
G|-8---8---8-8-8-8-|-8---8---8-8-8--|-------8-8-------|-----------------|
D|-----------------|----------------|-------------8-8-|---8-8-8-8-8-8-8-|

Verse 2 - (2nd time through on first bars, hold last note a little longer)
F|-----------------|---------|--------------------|X2
C|-----------------|---------|-8-8----------------|X2
G|-8-8---8-8---8-8-|-------8-|-------8-8----------|X2
D|-----------------|---------|-------------8-8~---|X2

F|-----------------|-----------------|-----------------|-------------------|X2
C|-----------------|-----------------|-8-8-8-----------|-------------------|X2
G|-8-8-8-8-8-8-8-8-|-8-8-8-8-8-8-8-8-|-------8-8-8-----|-------------------|X2
D|-----------------|-----------------|-------------8-8~|~--8-8-8-8-8-8-8---|X2

Chorus 2 -
F|-----------------|----------------|-----------------|------------------|X2
C|-----------------|----------------|-----------------|------------------|X2
G|-----------------|----------------|-8---8---8-8-8-8-|------------------|X2
D|-6---6---6-6-6-6-|-8---8---8-8-8--|-----------------|-6---6---6-6-6----|X2

F|------------------|----------------|----------------|
C|------------------|----------------|----------------|
G|------------------|----------------|----------------|
D|--6---6---6-6-6-6-|-8---8---8-8-8--|-8---8---8-8-8--|

Interlude -
F|---------------|-----------------|X4
C|---------------|-----------------|X4
G|---------------|-1~--------------|X4
D|-1~------------|-----------------|X4

F|-----------------|-----------------|-----------------|-------------------|X2
C|-----------------|-----------------|-----------------|-------------------|X2
G|-----------------|-----------------|-111-111-111-111-|-111-111-111-111---|X2
D|-111-111-111-111-|-111-111-111-111-|-----------------|-------------------|X2

F|---------------|-----------------|X2
C|---------------|-----------------|X2
G|---------------|-1~--------------|X2
D|-1~------------|-----------------|X2

F|-----------------|-----------------|-----------------|-------------------|X2
C|-----------------|-----------------|-----------------|-------------------|X2
G|-----------------|-----------------|-111-111-111-111-|-111-111-111-111---|X2
D|-111-111-111-111-|-111-111-111-111-|-----------------|-------------------|X2

F|---------------|---------------|-----------------|
C|---------------|---------------|-----------------|
G|---------------|-8-------------|-----------------|
D|-8~------------|---------------|-8-8-8-8-8-8-8-8-|

Harp Solo - X2
F|-----------------|----------------|-----------------|-----------------|
C|-----------------|----------------|-8-8-------------|-----------------|
G|-8---8---8-8-8-8-|-8---8---8-8-8--|-------8-8-------|-----------------|
D|-----------------|----------------|-------------8-8-|---8-8-8-8-8-8-8-|

Verse 3 - (2nd time through on first bars, hold last note a little longer)
F|-----------------|---------|--------------------|X2
C|-----------------|---------|-8-8----------------|X2
G|-8-8---8-8---8-8-|-------8-|-------8-8----------|X2
D|-----------------|---------|-------------8-8~---|X2
(change last 8 to a 6 2nd time through for bars below)
F|-----------------|-----------------|-----------------|-------------------|X2
C|-----------------|-----------------|-8-8-8-----------|-------------------|X2
G|-8-8-8-8-8-8-8-8-|-8-8-8-8-8-8-8-8-|-------8-8-8-----|-------------------|X2
D|-----------------|-----------------|-------------8-8-|-8-8-8-8-8-8-8-8---|X2

Chorus 3 -
F|-----------------|----------------|-----------------|------------------|X2
C|-----------------|----------------|-----------------|------------------|X2
G|-----------------|----------------|-8---8---8-8-8-8-|------------------|X2
D|-6---6---6-6-6-6-|-8---8---8-8-8--|-----------------|-6---6---6-6-6----|X2

F|------------------|----------------|----------------|
C|------------------|----------------|----------------|
G|------------------|----------------|----------------|
D|--6---6---6-6-6-6-|-8---8---8-8-8--|-8---8---8-8-8--|

Interlude 2 -
F|-----------------|-----------------|-----------------|-------------------|X2
C|-----------------|-----------------|-----------------|-------------------|X2
G|-----------------|-----------------|-111-111-111-111-|-111-111-111-111---|X2
D|-111-111-111-111-|-111-111-111-111-|-----------------|-------------------|X2

Outro -
F|-----------------|-----------------|-----------------|-------------------|X2
C|-----------------|-----------------|-----------------|-------------------|X2
G|-----------------|-----------------|-111-111-111-111-|-111-111-111-111---|X2
D|-111-111-111-111-|-111-111-111-111-|-----------------|-------------------|X2

F|----|
C|----|
G|----|
D|-1--|

Thats it, enjoy, apologies for the length.
Suggest correction
comments
print report bad tab
guest
You may want to rate the tab now too:
select rating
Wanna post a correction for this tab? Suggest correction