Oops, an error
Loading. Please wait.

I Only Wanna Be With You Tab

version 1
version 1

Whole song

Interactive

31,463 views 12 this week
1 commentread comment
1 2 3 4 5
worth learning
x 3
add to favorites
launch autoscroll
font size
0
reset
how to read this tab
guitar tuner
Tab Pro tools
  • play this tab
  • loop segment
  • change instrument
  • show fretboard
  • metronome
×
Best way to learn
"I Only Wanna Be With You"
Autoscroll
slow
fast
+/-
esc
set tempo
stop
Contributor
Difficulty
novice
Tabbed by Jonas Brandt-Henriksen
growlcomic[a]gmail.com
www.growlcomic.com

The homepage of the band is www.volbeat.dk

There might be some grammar mistakes and so on, but I hope that you'll survive.
This is by the way my first tab.

Normal Tune (E-A-D-G-B-E)

This is a great song from their debut album
"The Strength // The Sound // The Songs"

It is a cover track though, but still great.
Original song is by Dusty Springfield (or he perfoms it)

PM = Palm Mute

Intro:

Riff 1

e|-------------------------|
B|-------------------------|
G|--77777PM----------------|
D|--77777PM----------------|
A|--55555PM-7-8-9----------|
E|--55555PM----------------| is repeated 8 times. If you play alone, you can just
mute it, when the second guitar comes in the song.

Riff 2

e|------------------|
B|------------------|
G|--7-7-7-7---------|
D|--7-7-7-7---------|
A|--5-5-5-5-7-8-9---|
E|--5-5-5-5---------| This is also repeated 8 times. Sometimes there is some extra power
but it is so easy to figure out,
that I don't have to write it here.

Then now when he sings, it is actually only some power chords. Pretty simpel

I don't know what it is that makes me love you so
I only know I never wanna let you go
'Cause you started something, can't you see
Ever since we met you've had a hold on me
I happens to be true, I only want to be with you


Riff 3

e|----------2-2-2-2---------2-2-2-2---------------------------3-3-3-3-----------------------------|
B|----------3-3-3-3---------3-3-3-3---------------------------3-3-3-3-----------------------------|
G|--7-7-7-7-4-4-4-4-7-7-7-7-4-4-4-4--4-4-6-6-----6-6--7-7-7-7-4-4-4-4--------------------------7--|
D|--7-7-7-7-4-4-4-4-7-7-7-7-4-4-4-4--5-5-7-7-5-5-7-7--7-7-7-7-4-4-4-4--2-2-2-2-7-7-7-7-2-2-7-7-7--|
A|--5-5-5-5-2-2-2-2-5-5-5-5-2-2-2-2--5-5-7-7-5-5-7-7--5-5-5-5-2-2-2-2--2-2-2-2-7-7-7-7-2-2-7-7-5--|
E|--5-5-5-5-2-2-2-2-5-5-5-5-2-2-2-2--3-3-5-5-3-3-5-5--5-5-5-5-2-2-2-2--0-0-0-0-5-5-5-5-0-0-5-5-5--|

Then play it again, then Riff 2 and then Riff 3 again. Just listen to the song while you
it.


1:44 minutes in the song, this is being played. All this is palm muted

Riff 4

e|--------------------------------------------------------------------------------------------------------------------------------|
B|--------------------------------------------------------------------------------------------------------------------------------|
G|--7-7-7-7-7-7-7-7-7-7-7-7-7-7-7-7---------------------------------------------------------------7-7-7-7-7-7-7-7-9-9-9-9-9-9-9-9-|
D|--7-7-7-7-7-7-7-7-7-7-7-7-7-7-7-7-7-7-7-7-7-7-7-7-7-7-7-7-7-7-7-7-2-2-2-2-2-2-2-2-2-2-2-2-2-2-2-7-7-7-7-7-7-7-7-9-9-9-9-9-9-9-9-|
A|--5-5-5-5-5-5-5-5-5-5-5-5-5-5-5-5-7-7-7-7-7-7-7-7-7-7-7-7-7-7-7-7-2-2-2-2-2-2-2-2-2-2-2-2-2-2-2-5-5-5-5-5-5-5-5-7-7-7-7-7-7-7-7-|
E|--5-5-5-5-5-5-5-5-5-5-5-5-5-5-5-5-5-5-5-5-5-5-5-5-5-5-5-5-5-5-5-5-0-0-0-0-0-0-0-0-0-0-0-0-0-0-0-5-5-5-5-5-5-5-5-7-7-7-7-7-7-7-7-|


Then back to Riff 3 and then Riff 2


There is missing some chords in it, but it is because they are so easy, that I don't
to write it here, as said before.
comments
We did not receive enough feedback on this tab! Please rate:
print report bad tab
1 2 3 4 5
1 comment total.
0 reply
growl wrote on July 20 2006, 03:29 pm

Riff 4 is a bit wrong.

It is first 1 1 3 3 x 0 (Asus) and then A, and then F, then G, then A again. All in power chord. Sorry for that mistake.

I want to post or [tab]
guest
You may want to rate the tab now too:
select rating
Please do not post tabs as comments. Select "correction" instead!