Oops, an error
Loading. Please wait.

Im So Lonesome I Could Cry Tab

version 1
version 1

Whole song

Interactive

14,743 views 39 this week
no commentswrite comment
1 2 3 4 5
accurate
x 9
add to favorites
launch autoscroll
font size
0
reset
how to read this tab
guitar tuner
Autoscroll
slow
fast
+/-
esc
set tempo
stop
Help us to improve Ultimate-Guitar.com Take our survey!
×
Difficulty
novice
tabbed by sabrina

play intro with notes of the Bb accord, for example like this:

E|-----------------------------------|
B|-----------------------------------|
G|-3-------3--------3----------------|
D|------3-------3---------3----------|
A|------------------------------3----|
E|-----------------------------------|

E|-----------------------------------|
B|-----3---4---4---3-----------------|
G|-3-------------------3-------------|
D|--------------------------3--------|
A|-----------------------------------|
E|-----------------------------------|

E|-----------------------------------------|
B|-4---3---3---3----6---6----3-------------|
G|-------------------------------3---------|
D|-------------------------------------3---|
A|-----------------------------------------|
E|-----------------------------------------|

E|------------------------------|
B|-3---6---4----3---------------|
G|------------------5-----3-----|
D|------------------------------|
A|------------------------------|
E|------------------------------|

part 1:

E|------------------------|
B|------------------------|
G|-3----8----3---------3--|
D|-3----8----3----3----3--|
A|-1----6----1----3----1--|
E|----------------1-------|

part 2:

E|------------------------|
B|------------------------|
G|------5---------3-------|
D|-5----5----3----3-------|
A|-5----3----3----1-------|
E|-3---------1------------|


part 1:
Hear the lonesome whippoorwill     
He sounds too blue to fly                   
The midnight train is whining low    
I'm So Lonesome I Could Cry

part 1:
I never seen a night so long
When times goes crawling by
The moon just went behind a cloud
To hide it's face and cry

part 2:
Well maybe the night is cold
But together they fade
Like the shadow that ran up to the hills

part 2:
Trying to fix her wings
There's a saint and a sinner
And forever the missing day
Where the winners and the losers feel the same
Who knows what tomorrow brings

part 1:
Did you ever see a robin weep
When leaves begin to die
That means he's lost the will to live
I'm So Lonesome I Could Cry

part 1:
The silence of a falling star
Lights a purple sky
And so I wonder where you are
I'm So Lonesome I Could Cry

part 2:
Well maybe the night is cold
But together they fade
Like the shadow that ran up to the hills
Trying to fix her wings

part 2:
There's a saint and a sinner
And forever the missing day
Where the winners and the losers feel the same
Who knows what tomorrow brings

part 1:
Hear the lonesome whipperwill
He sounds too blue to fly
The midnight train is whining low
I'm So Lonesome I Could Cry 
I'm So Lonesome I Could Cry
I'm So Lonesome I Could Cry


Suggest correction
What's this?
You can suggest a correction to this tab. Community and Mods will review your correction and vote to approve or reject it.
comments
print report bad tab
guest
You may want to rate the tab now too:
select rating
Please do not post tabs as comments. Select "correction" instead!