Oops, an error
Loading. Please wait.

Lola Montez Tab

version 1
version 1

Whole song

Interactive

64,670 views 153 this week
10 commentsread comments
1 2 3 4 5
accurate
x 21
add to favorites
launch autoscroll
font size
0
reset
how to read this tab
guitar tuner
Autoscroll
slow
fast
+/-
esc
set tempo
stop
Help us to improve Ultimate-Guitar.com Take our survey!
×
Author
Difficulty
intermediate
For anyone interested, I have used the guitar played by Michael Poulsen as
rhythm, and that played by Rob Caggiano as lead. Most of this was based off
their live performance at Rock Am Ring.


[Intro]

RHYTHM ONLY:
e|--------------------------------------------------------------------|
B|--------------------------------------------------------------------|
G|-77777777777777-----------------------------------------------------|
D|-77777777777777-55555555-77777777-----------------------------------|
A|-55555555555555-55555555-77777777-----------------------------------|
E|----------------33333333-55555555-----------------------------------|
   .............. ........ ........
   Feel the fire where she walks, Lola Montez so beautiful

e|--------------------------------------------------------------------|
B|--------------------------------------------------------------------|
G|-77777777777777-----------------------------------------------------|
D|-77777777777777-55555555-77777777-----------------------------------|
A|-55555555555555-55555555-77777777-----------------------------------|
E|----------------33333333-55555555-----------------------------------|
   .............. ........ ........
   Shady and a tempered dame, blinding your eyes with her spider...

BOTH GUITARS:
e|--------------------------------------------------------------------|
B|--------------------------------------------------------------------|
G|-7~---------7-7-7-777~---7-7-7-777~---7-7-7-777~--------------------|
D|-7~---------7-7-7-777~---7-7-7-777~---7-7-7-777~--77777777----------|
A|-5~--------5555555555~--5555555555~--5555555555~--77777777----------|
E|--------------------------------------------------55555555----------|
             . . . .      . . . .      . . . .      ........
  ...dance


[Pre-Verse]

The lead guitar here is very hard to tab clearly, sorry :(
Listen to the song to work out how many times you need to play
each bend before releasing.

LEAD:
e|--------------------------------------------------------------------|
B|-7------------------------------------------------------------------|
G|-9b11r9-(x7)--7~-7~-7h9\6~-7~-6h7-----------------------------------|
D|--------------------------------------------------------------------|
A|--------------------------------------------------------------------|
E|--------------------------------------------------------------------|

e|--------------------------------------------------------------------|
B|-7-----------10-7----------------8877h8-----------------------------|
G|-9b11r9-(x3)----9b11r9-(x4)-9-7--------9-79-7-9-9b10r9-77~----------|
D|--------------------------------------------------------------------|
A|--------------------------------------------------------------------|
E|--------------------------------------------------------------------|

e|--------------------------------------------------------------------|
B|-8-7-----8-7-----8-7---10-8-7---------------------------------------|
G|-----9-7-----9-7-----9--------9-7-----------------------------------|
D|--------------------------------------------------------------------|
A|--------------------------------------------------------------------|
E|--------------------------------------------------------------------|x2
   . . . . . . . . . . . . . . . . . (light palm mute)

RHYTHM:
e|--------------------------------------------------------------------|
B|--------------------------------------------------------------------|
G|-77777777777777-----------------------------------------------------|
D|-77777777777777-55555555-77777777-----------------------------------|
A|-55555555555555-55555555-77777777-----------------------------------|
E|----------------33333333-55555555-----------------------------------|x2

e|--------------------------------------------------------------------|
B|--------------------------------------------------------------------|
G|-7~---------7-7-7-777~----------------------------------------------|
D|-7~---------7-7-7-777~----77777777----------------------------------|
A|-5~--------5555555555~----77777777----------------------------------|
E|--------------------------55555555----------------------------------|
             . . . .        ........


[Verse]

LEAD ONLY:
e|--------------------------------------------------------------------|
B|--------------------------------------------------------------------|
G|-77777777777777-----------------------------------------------------|
D|-77777777777777-55555555-77777777-----------------------------------|
A|-55555555555555-55555555-77777777-----------------------------------|
E|----------------33333333-55555555-----------------------------------|x2
   .............. ........ ........
   Her perfomance utterly erotic subversive to all ideas
   And for public morality, and cool as she was she didn't care

e|--------------------------------------------------------------------|
B|--------------------------------------------------------------------|
G|-7777777777777777---------------------------------------------------|
D|-7777777777777777-55555555-77777777---------------------------------|
A|-5555555555555555-55555555-77777777---------------------------------|
E|------------------33333333-55555555---------------------------------|
   .. .. . .. .. .  .. .. .  .. .. .
   See the miner throw his gold, lifting her skirt howling loud like a wolf

(Rhythm joins for the last power chords)
e|--------------------------------------------------------------------|
B|--------------------------------------------------------------------|
G|-77777777777777---------------------777777777.----------------------|
D|-77777777777777-55555555-77777777---777777777.----------------------|
A|-55555555555555-55555555-77777777---555555555.----------------------|
E|----------------33333333-55555555-----------------------------------|
   .............. .. .. .  .. .. .
   Hell raising and full of sin, when lola was dancing and showing her skin


[Chorus]

LEAD:
e|--------------------------------------------------------------------|
B|-------------------------------------8-7h8p7------------------------|
G|-------------------777777777777777--7--------4~---------------------|
D|-55555555-77777777-777777777777777----------------------------------|
A|-55555555-77777777-555555555555555----------------------------------|
E|-33333333-55555555--------------------------------------------------|

RHYTHM:
e|--------------------------------------------------------------------|
B|--------------------------------------------------------------------|
G|-------------------777777777777777----------------------------------|
D|-55555555-77777777-777777777777777----------------------------------|
A|-55555555-77777777-555555555555555----------------------------------|
E|-33333333-55555555--------------------------------------------------|
   Wherever she walks, she will be, captivating all the men

LEAD:
e|--------------------------------------------------------------------|
B|--------------------------------------------------------------------|
G|----------------------7~-9~-11~-9~--12-11-9-7-----------------------|
D|-55555555-77777777----x--x--x---x---x--x--x-x-----------------------|
A|-55555555-77777777----5~-7~-9~--7~--10-9--7-5-----------------------|
E|-33333333-55555555--------------------------------------------------|

RHYTHM:
e|--------------------------------------------------------------------|
B|--------------------------------------------------------------------|
G|--------------------------------------------------------------------|
D|-55555555-77777777--------------------------------------------------|
A|-55555555-77777777----5~-7~-9~-7~-10-9-7-5--------------------------|
E|-33333333-55555555--------------------------------------------------|
   Don't look in her eyes, you might fall and find the love of your life.

LEAD:
e|--------------------------------------------------------------------|
B|-------------------------------------8-7h8p7------------------------|
G|-------------------777777777777777--7--------4~---------------------|
D|-55555555-77777777-777777777777777----------------------------------|
A|-55555555-77777777-555555555555555----------------------------------|
E|-33333333-55555555--------------------------------------------------|

RHYTHM:
e|--------------------------------------------------------------------|
B|--------------------------------------------------------------------|
G|-------------------777777777777777----------------------------------|
D|-55555555-77777777-777777777777777----------------------------------|
A|-55555555-77777777-555555555555555----------------------------------|
E|-33333333-55555555--------------------------------------------------|
   Heavenly, but she'll catch you in her web.

BOTH:
e|--------------------------------------------------------------------|
B|--------------------------------------------------------------------|
G|--------------------------------------------------------------------|
D|-55555555-77777777--------------------------------------------------|
A|-55555555-77777777--------------------------------------------------|
E|-33333333-55555555--------------------------------------------------|
            ........
   The love of your life. Yeahhh.


[Post-Chorus]

LEAD:
e|--------------------------------------------------------------------|
B|-7-----------------------10-----------------------------------------|
G|-9b11r9-(x4)-9b10r9-7-9~-11b13-(x5)-9b10r9-7-9~-9b10r9-7-6-7--------|
D|--------------------------------------------------------------------|
A|--------------------------------------------------------------------|
E|--------------------------------------------------------------------|

e|--------------------------------------------------------------------|
B|-7-----------10b12r10------17b19-17b19r17-14-14-15~-----------------|
G|-9b11r9-(x7)--------------------------------------------------------|
D|--------------------------------------------------------------------|
A|--------------------------------------------------------------------|
E|--------------------------------------------------------------------|

e|--------------------------------------------------------------------|
B|-8-7-----8-7-----8-7---10-8-7---------------------------------------|
G|-----9-7-----9-7-----9--------9-7-----------------------------------|
D|--------------------------------------------------------------------|
A|--------------------------------------------------------------------|
E|--------------------------------------------------------------------|x2
   . . . . . . . . . . . . . . . . . (light palm mute)

RHYTHM:
e|--------------------------------------------------------------------|
B|--------------------------------------------------------------------|
G|-77777777777777-----------------------------------------------------|
D|-77777777777777-55555555-77777777-----------------------------------|
A|-55555555555555-55555555-77777777-----------------------------------|
E|----------------33333333-55555555-----------------------------------|x2

e|--------------------------------------------------------------------|
B|--------------------------------------------------------------------|
G|-7~---------7-7-7-777~----------------------------------------------|
D|-7~---------7-7-7-777~----77777777----------------------------------|
A|-5~--------5555555555~----77777777----------------------------------|
E|--------------------------55555555----------------------------------|
             . . . .        ........


[Verse]

LEAD ONLY:
e|--------------------------------------------------------------------|
B|--------------------------------------------------------------------|
G|-77777777777777-----------------------------------------------------|
D|-77777777777777-55555555-77777777-----------------------------------|
A|-55555555555555-55555555-77777777-----------------------------------|
E|----------------33333333-55555555-----------------------------------|x2
   .............. ........ ........
   Feel the fire where she walks, Lola Montez so beautiful.
   Shady and a tempered dame, blinding your eyes with her spider dance.

e|--------------------------------------------------------------------|
B|--------------------------------------------------------------------|
G|-7777777777777777---------------------------------------------------|
D|-7777777777777777-55555555-77777777---------------------------------|
A|-5555555555555555-55555555-77777777---------------------------------|
E|------------------33333333-55555555---------------------------------|
   .. .. . .. .. .  .. .. .  .. .. .
   Well notorious I have been, but never for fame that's what she said.

(Rhythm joins for the last power chords)
e|--------------------------------------------------------------------|
B|--------------------------------------------------------------------|
G|-77777777777777---------------------777777777.----------------------|
D|-77777777777777-55555555-77777777---777777777.----------------------|
A|-55555555555555-55555555-77777777---555555555.----------------------|
E|----------------33333333-55555555-----------------------------------|
   .............. .. .. .  .. .. .
   Dear Henry taste my whip, never to see any words you print.


[Chorus]

LEAD:
e|--------------------------------------------------------------------|
B|-------------------------------------8-7h8p7------------------------|
G|-------------------777777777777777--7--------4~---------------------|
D|-55555555-77777777-777777777777777----------------------------------|
A|-55555555-77777777-555555555555555----------------------------------|
E|-33333333-55555555--------------------------------------------------|

RHYTHM:
e|--------------------------------------------------------------------|
B|--------------------------------------------------------------------|
G|-------------------777777777777777----------------------------------|
D|-55555555-77777777-777777777777777----------------------------------|
A|-55555555-77777777-555555555555555----------------------------------|
E|-33333333-55555555--------------------------------------------------|
   Wherever she walks, she will be, captivating all the men

LEAD:
e|--------------------------------------------------------------------|
B|--------------------------------------------------------------------|
G|----------------------7~-9~-11~-9~--12-11-9-7-----------------------|
D|-55555555-77777777----x--x--x---x---x--x--x-x-----------------------|
A|-55555555-77777777----5~-7~-9~--7~--10-9--7-5-----------------------|
E|-33333333-55555555--------------------------------------------------|

RHYTHM:
e|--------------------------------------------------------------------|
B|--------------------------------------------------------------------|
G|--------------------------------------------------------------------|
D|-55555555-77777777--------------------------------------------------|
A|-55555555-77777777----5~-7~-9~-7~-10-9-7-5--------------------------|
E|-33333333-55555555--------------------------------------------------|
   Don't look in her eyes, you might fall and find the love of your life.

LEAD:
e|--------------------------------------------------------------------|
B|-------------------------------------8-7h8p7------------------------|
G|-------------------777777777777777--7--------4~---------------------|
D|-55555555-77777777-777777777777777----------------------------------|
A|-55555555-77777777-555555555555555----------------------------------|
E|-33333333-55555555--------------------------------------------------|

RHYTHM:
e|--------------------------------------------------------------------|
B|--------------------------------------------------------------------|
G|-------------------777777777777777----------------------------------|
D|-55555555-77777777-777777777777777----------------------------------|
A|-55555555-77777777-555555555555555----------------------------------|
E|-33333333-55555555--------------------------------------------------|
   Heavenly, but she'll catch you in her web.

BOTH:
e|--------------------------------------------------------------------|
B|--------------------------------------------------------------------|
G|--------------------------------------------------------------------|
D|-55555555-77777777--------------------------------------------------|
A|-55555555-77777777--------------------------------------------------|
E|-33333333-55555555--------------------------------------------------|
            ........
   The love of your life. Yeahhh.


[Bridge]

BOTH GUITARS:
e|--------------------------------------------------------------------|
B|--------------------------------------------------------------------|
G|--------------------------------------------------------------------|
D|-44444444-44-44444444444444-444-444-444-444-------------------------|
A|-44444444-44-44444444444444-444-444-444-444-------------------------|
E|-22222222-22-22222222222222-222-222-222-222-------------------------|
   ........ .. .............. ... ... ... ...


[Solo]

RHYTHM:
e|---------------------------------------------------------------------|
B|---------------------------------------------------------------------|
G|-7777777777777777----------------------------------------------------|
D|-7777777777777777-7777777777777777-9999999999999999-5555555555555555-|
A|-5555555555555555-7777777777777777-9999999999999999-5555555555555555-|
E|------------------5555555555555555-7777777777777777-3333333333333333-|x2

LEAD:
Really not 100% with this. Confident about it all apart from the fast part.
Play roughly what I have tabbed but it is no way correct.
e|--------------------------------------------------------------------|
B|--------------------------------------------------------------------|
G|-12v-11-11v-9-9v-7-7v---14-12V-11-9V-9h11p9v------------------------|
D|--------------------------------------------------------------------|
A|--------------------------------------------------------------------|
E|--------------------------------------------------------------------|

e|--------------------------------------------------------------------|
B|----------------------------------10----12b13r12 10h12p10~----------|
G|-7h9-9b11-77~-7h9-9b11r9-7h9--9h11--9h11----------------------------|
D|--------------------------------------------------------------------|
A|--------------------------------------------------------------------|
E|--------------------------------------------------------------------|

e|--------10--10--10--12---12-15-14-12-----------10--10--10-----------|
B|------14--14--14--14---14------------14-12---14--14--14--14---------|
G|-11-14--------------------------------------------------------------|
D|--------------------------------------------------------------------|
A|--------------------------------------------------------------------|
E|--------------------------------------------------------------------|

e|-15-14-14-12-10-10~-------------------------------------------------|
B|-------------------10-12-10-15b17-15--------------------------------|
G|--------------------------------------------------------------------|
D|--------------------------------------------------------------------|
A|--------------------------------------------------------------------|
E|--------------------------------------------------------------------|

e|-15-14h15p14p12-17p15-14h15p14p12----------------15p14h15p14p12-----|
B|---------------------------------151412-12h14h15--------------------|
G|--------------------------------------------------------------------|
D|--------------------------------------------------------------------|
A|--------------------------------------------------------------------|
E|--------------------------------------------------------------------|

e|-17-15p14h15p14p12-15p14h15p14h12-/12v------------------------------|
B|--------------------------------------------------------------------|
G|--------------------------------------------------------------------|
D|--------------------------------------------------------------------|
A|--------------------------------------------------------------------|
E|--------------------------------------------------------------------|


[Bridge 2]

e|--------------------------------------------------------------------|
B|--------------------------------------------------------------------|
G|-9~----------7~-----------------------------------------------------|
D|-9~----7~----7~----5~-----------------------------------------------|
A|-7~----7~----5~----5~-----------------------------------------------|
E|-------5~----------3~-----------------------------------------------|x2

Lead plays this little bit, listen for it:
e|--------------------------------------------------------------------|
B|--------------------------------------------------------------------|
G|--------------------------------------------------------------------|
D|--------------------------------------------------------------------|
A|-5--7--10--9v-------------------------------------------------------|
E|--------------------------------------------------------------------|x2
  Oh Lola I'm sure that the love would have been. 
  The key to all your pain, the key to all your pain.
  No words will later come, did the spider bite your tongue.
  We will surely not forget

LEAD:
e|--------------------------------------------------------------------|
B|-8-7-----8-7-----8-7---10-8-7---------------------------------------|
G|-----9-7-----9-7-----9--------9-7-----------------------------------|
D|--------------------------------------------------------------------|
A|--------------------------------------------------------------------|
E|--------------------------------------------------------------------|x2
   . . . . . . . . . . . . . . . . . (light palm mute, cut short second time)

RHYTHM:
e|--------------------------------------------------------------------|
B|--------------------------------------------------------------------|
G|--------------------------------------------------------------------|
D|-7777777777777777777777777------------------------------------------|
A|-7777777777777777777777777------------------------------------------|
E|-5555555555555555555555555------------------------------------------|
   ............. . ........
                           The lola spider da...


[Chorus]

LEAD:
e|--------------------------------------------------------------------|
B|-------------------------------------8-7h8p7------------------------|
G|-------------------777777777777777--7--------4~---------------------|
D|-55555555-77777777-777777777777777----------------------------------|
A|-55555555-77777777-555555555555555----------------------------------|
E|-33333333-55555555--------------------------------------------------|

RHYTHM:
e|--------------------------------------------------------------------|
B|--------------------------------------------------------------------|
G|-------------------777777777777777----------------------------------|
D|-55555555-77777777-777777777777777----------------------------------|
A|-55555555-77777777-555555555555555----------------------------------|
E|-33333333-55555555--------------------------------------------------|
   aaannceee... Wooahhhhooohhoohhhoohhh.

LEAD:
e|--------------------------------------------------------------------|
B|--------------------------------------------------------------------|
G|----------------------7~-9~-11~-9~--12-11-9-7-----------------------|
D|-55555555-77777777----x--x--x---x---x--x--x-x-----------------------|
A|-55555555-77777777----5~-7~-9~--7~--10-9--7-5-----------------------|
E|-33333333-55555555--------------------------------------------------|

RHYTHM:
e|--------------------------------------------------------------------|
B|--------------------------------------------------------------------|
G|--------------------------------------------------------------------|
D|-55555555-77777777--------------------------------------------------|
A|-55555555-77777777----5~-7~-9~-7~-10-9-7-5--------------------------|
E|-33333333-55555555--------------------------------------------------|
   Don't look in her eyes, you might fall and find the love of your life.

LEAD:
e|--------------------------------------------------------------------|
B|-------------------------------------8-7h8p7------------------------|
G|-------------------777777777777777--7--------4~---------------------|
D|-55555555-77777777-777777777777777----------------------------------|
A|-55555555-77777777-555555555555555----------------------------------|
E|-33333333-55555555--------------------------------------------------|

RHYTHM:
e|--------------------------------------------------------------------|
B|--------------------------------------------------------------------|
G|-------------------777777777777777----------------------------------|
D|-55555555-77777777-777777777777777----------------------------------|
A|-55555555-77777777-555555555555555----------------------------------|
E|-33333333-55555555--------------------------------------------------|
   Heavenly, but she'll catch you in her web.

BOTH:
e|--------------------------------------------------------------------|
B|--------------------------------------------------------------------|
G|-------------------7~-----------------------------------------------|
D|-55555555-77777777-7~-----------------------------------------------|
A|-55555555-77777777-5~-----------------------------------------------|
E|-33333333-55555555--------------------------------------------------|
            ........
   The love of your life. Yeahhh.



************************************

| x  Dead note
| h  Hammer-on
| p  Pull-off
| r  Release
| b  Bend
| /  Slide up
| \  Slide down
| ~  Vibrato
| PM Palm mute
************************************
Suggest correction
comments
print report bad tab
10 comments total. Showing first comments.
+1 reply
MusicMan24 1,114 wrote on August 6 2013, 02:28 am

Pretty good, except for the lack of the solo

0 reply
bgosling 96 wrote on August 6 2013, 10:37 am

Cheers man, gonna start working on it soon.

-2 reply
BuiltByGold 10 wrote on August 14 2013, 03:53 am

IN the chorus it should be

5-7-9-7-10-9-7-9
3---3--3---3--

guest
You may want to rate the tab now too:
select rating
Please do not post tabs as comments. Select "correction" instead!