Oops, an error
Loading. Please wait.

Maybellene I Hofteholder Bass Tab

version 1
version 1

Whole song

Interactive

2,611 views 9 this week
no commentswrite comment
1 2 3 4 5
please rate
add to favorites
launch autoscroll
font size
0
reset
guitar tuner
Autoscroll
slow
fast
+/-
esc
set tempo
stop
Help us to improve Ultimate-Guitar.com Take our survey!
×
Contributor
Teh D Bot 10,204
0:27
G|-------------------------|
D|-------------------------|
A|-------------------------|
E|-38---85---510---3---8---|
B|-------------------------|

0:43
G|----------------------------------------------------|
D|----------------------------------------------------|
A|----------------------------------------------------|
E|-88--88-88-55--55-55-1010--1010-1010-33---x33333333-|
B|----------------------------------------------------|

0:53
G|-------------------------------------------------------------------------------------------|
D|o-----------------------------------------------------------------------------------------o|
A|-------------------------------------------------------------------------------------------|
E|o-888-888-888-888-55-8-10-8-55881010810-101010-101010-101010-101010----7-10-7---771010710-o|
B|--------------------------------------------------------------------88--------88-----------|

1:13
G|-------------------------------------------------------|
D|-------------------------------------------------------|
A|-------------------------------------------------------|
E|-------------8888--88887777-------------8888--88887777-|
B|-6666--6666-----------------6666--6666-----------------|

1:24
G|-----------------------------------|
D|-----------------------------------|
A|-----------------------------------|
E|-5(x16)----------------------------|
B|----------6(x16)---8(x12)-888-8888-|

1:34
G|------------------------------------------------------------------|
D|------------------------------------------------------------------|
A|------------------------------------------------------------------|
E|-8-88888888101088755-5(x16)---8-888888888888755-5(x16)------------|
B|--------------------------------------------------------3----8----|

1:49
G|---------------------------------------------------------------------------------|
D|---------------------------------------------------------------------------------|
A|---------------------------------------------------------------------------------|
E|-88--88--55-8-10-8-55881010810-101010-101010-101010-101010----7-10-7---771010710-|
B|-----------------------------------------------------------88--------88----------|

G|-----------------------------------------------------------------------------------------|
D|-----------------------------------------------------------------------------------------|
A|-----------------------------------------------------------------------------------------|
E|-888-888-888-888-55-8-10-8-55881010810-101010-101010-101010-101010----7-10-7---771010710-|
B|-------------------------------------------------------------------88--------88----------|

2:09
G|----------------------------------------------------------|
D|o--------------------------------------------------------o|
A|----------------------------------------------------------|
E|o-------------8888--88887777-------------8888--88887777--o|
B|-6666--6666-----------------6666--6666--------------------|

2:30
G|-----------------------------------|
D|-----------------------------------|
A|-----------------------------------|
E|-5(x16)----------------------------|
B|----------6(x16)---8(x12)-888-8888-|

2:40
G|-----------------------------------------------------------------------|
D|-----------------------------------------------------------------------|
A|-----------------------------------------------------------------------|
E|-8-888-888-1087-5-555-555-555-8-10-101010-101010-1198-3-333-333-3(x14)-|
B|

2:51
G|----------------------------------------------------------------------|
D|----------------------------------------------------------------------|
A|----------------------------------------------------------------------|
E|-8-888-888-1087-5-555-555-555-8-10-101010-101010-1198-3-333-333-333-3-|
B|----------------------------------------------------------------------|

G|-----------------------------------------------------------------|
D|-----------------------------------------------------------------|
A|-----------------------------------------------------------------|
E|-8-888-888-1087-5-555-555-555-8-10-101010-101010-1198-3-3(x24)-8-|
B|-----------------------------------------------------------------|

Tabbed by Dave Vucko
comments
We did not receive enough feedback on this tab! Please rate:
print report bad tab
1 2 3 4 5
I want to post or [tab]
guest
You may want to rate the tab now too:
select rating
Please do not post tabs as comments. Select "correction" instead!