Oops, an error
Loading. Please wait.

Rebel Angel Tab

version 1
version 1

Whole song

1,620 views 1 this week
no commentswrite comment
1 2 3 4 5
accurate
x 4
add to favorites
launch autoscroll
font size
0
reset
how to read this tab
guitar tuner
Autoscroll
slow
fast
+/-
esc
set tempo
stop
Help us to improve Ultimate-Guitar.com Take our survey!
×
Author
Difficulty
Tuning
intermediate
D A D G B E
Okay i did this by ear so the solo might not be 100% but you can figure it out. I 
wanted to learn this song and didnt see any other tabs out there so this is why i 
did it! So just be happy somebody did ;)
Tuning: Drop D

INTRO
D|------------------|
A|------------------|
D|--10--------------|   x4
G|--10---------8p7--|
B|---8---------8p7--|
E|-------------8p7--| 

VERSE
D|----------------|
A|----------------|
D|---10------7----|    x6 (PALM MUTE THE 3-6TH TIME)
G|---10-x8---7-x8-|
B|----8------5----|
E|----------------|


CHORUS
D|--------------|
A|--------------|
D|-------10-----|        
G|-8-----10-x16-| x2 THEN G|--10------| 
B|-8-x16--8-----|         B|--10-x16--|
E|-8------------|         E|--10------|


VERSE
D|----------------|
A|----------------|
D|---10------7----|    x6 (PALM MUTE THE 3-6TH TIME)
G|---10-x8---7-x8-|
B|----8------5----|
E|----------------|



CHORUS
D|--------------|
A|--------------|
D|-------10-----|        
G|-8-----10-x16-| x2 THEN G|--10------| 
B|-8-x16--8-----|         B|--10-x16--|
E|-8------------|         E|--10------|


SOLO PT1                            SOLO PT2
D|-------------------------------|-----------------------------|
A|-------------------------------|-----------10----------------|
D|-----7-------7--------10-------|-----10--10---12-------------|
G|---7--7----7--7----10---10-10--|---10--10--------9h10p9------| x2
B|--5-5--5--5-5--5--8--8----8----|--8----------------------10--|
E|-------------------------------|-----------------------------|
SOLO PT3
D|-----------------------|        Okay, it goes 
A|-----------------------|        PT1, PT2, PT1, PT2, 
D|--7-9-9-10-10-9h10p9-7-|        PT2, PT2, PT3, PT3,
G|-----------------------|        PT2, PT2, PT3, PT3.
B|-----------------------|
E|-----------------------|


VERSE
D|----------------|
A|----------------|
D|---10------7----| x6 (PALM MUTE)
G|---10-x8---7-x8-|
B|----8------5----|
E|----------------|

CHORUS
D|--------------|
A|--------------|
D|-------10-----|        
G|-8-----10-x16-| x2 THEN G|--10------|--10-| 
B|-8-x16--8-----|         B|--10-x16--|--10-| END
E|-8------------|         E|--10------|---8-|


Alright guys i did my best. Contact ttothebaggin@live.com if you need help!
Suggest correction
comments
print report bad tab
guest
You may want to rate the tab now too:
select rating
Wanna post a correction for this tab? Suggest correction