Oops, an error
Loading. Please wait.

Slaytan Tab

25 views 25 this week
no commentswrite comment
1 2 3 4 5
2 more votes to show rating
add to favorites
launch autoscroll
font size
0
reset
how to read this tab
guitar tuner
Autoscroll
slow
fast
+/-
esc
set tempo
stop
Help us to improve Ultimate-Guitar.com Take our survey!
×
Author
Difficulty
Tuning
novice
D G C F A D
Slaytan

Tuning: D G C F A D

Bring the hammer, pound the nails
Drag that coffin down in hell

 [Verse]
D|---------------|
A|---------------|
F|---------------|
C|---------------|
G|-2--2--2-------|
D|-0--0--0---12\-|

 [Main Riff 1]
D|------------------------------------------------------|--------------------------------------------|
A|------------------------------------------------------|--------------------------------------------|
F|------------------------------------------------------|--------------------------------------------|
C|------------------------------------------------------|---------------------------------9~---------|
G|------------------------------------------------------|----------------------------7-10----8-10-8~-|
D|-0-0-0--0-0-0--0-0-0--0-0-0--0-0-0--0-0-0--0-0-0--0-0-|-0-0-0--0-0-0--0-0-0--0-0-0-----------------|
PM - - -  - - -  - - -  - - -  - - -  - - -  - - -  - -   - - -  - - -  - - -  - - - 

 [Fill]                                [Gtr1]          [Gtr2]
D|-----------------|-------------------|---------------|-x-----|
A|-----------------|-------------------|---------------|---x---|
F|-----------------|-------------------|---------------|-----x-|
C|-----------------|-------------------|-4-4-4-4-5-5-5-|-------|
G|-8-7-------------|-2-2-2-2-2-2-2-2-2-|-2-2-2-2-3-3-3-|-------|
D|-----10~-10-8-7~-|-0-0-0-0-0-0-0-0-0-|---------------|-------|
PM                   - - - - - - - - - 

 [Main Riff 2]
D|-----------------------------------------|------------------------------------|
A|-----------------------------------------|------------------------------------|
F|-----------------------------------------|------------------------------------|
C|-----------------------------------------|------------------------------5-7---|
G|-2-------2-------2-------2-------2-----3-|-2-------2-------2--5-7-8-7-8-----8-|
D|-0--0-0--0--0-0--0--0-0--0--0-0--0--0--1-|-0--0-0--0--0-0--0------------------|
PM    - -     - -     - -     - -     -         - -     - -

 [Main Riff 2 cont.]
D|-----------------------------------------|------------------------------------|
A|-----------------------------------------|------------------------------------|
F|-----------------------------------------|------------------------------------|
C|-----------------------------------------|--------------------0-2-0-----------|
G|-2-------2-------2-------2-------2-----3-|-2-------2-------2--------3-2-0-----|
D|-0--0-0--0--0-0--0--0-0--0--0-0--0--0--1-|-0--0-0--0--0-0--0--------------3-2-|
PM    - -     - -     - -     - -     -         - -     - -

 [Harmony]
D|-----------------------------------------|------------------------------------|
A|-----------------------------------------|------------------------------------|
F|-----------------------------------------|------------------------------3-5---|
C|-----------------------------------------|--------------------3-5-7-5-7-----7-|
G|-2-------2-------2-------2-------2-----3-|-2-------2-------2------------------|
D|-0--0-0--0--0-0--0--0-0--0--0-0--0--0--1-|-0--0-0--0--0-0--0------------------|
PM    - -     - -     - -     - -     -         - -     - -

 [End]
D|----------------------|
A|----------------------|
F|----------------------|
C|----------------------|
G|-2~---3-3--3--3--3--2-|
D|-0~---1-1--1--1--1--0-|

**************
\ = slide
~ = let ring
x = rake
PM = palm mute
**************
Suggest correction
Give kudos to tab author, rate the tab!
1 2 3 4 5
comments
print report bad tab
guest
You may want to rate the tab now too:
select rating
Wanna post a correction for this tab? Suggest correction