Oops, an error
Loading. Please wait.
We have Chord Pro version of Still Counting.
It's the closest thing you can get to the original song and it has interactive parts. Check out the tab »
×
by Volbeat
22,145 views 39 this week
2 commentsread comments
1 2 3 4 5
x 6
add to favorites
×
Save as Personal and add changes to this tab that will be seen only by you. Learn more ›
×
You can save this tab as Personal to edit and correct it or add notes. All changes will be seen only by you. Learn more »
launch autoscroll
font size
0
reset
guitar tuner
edit
Autoscroll
slow
fast
+/-
esc
set tempo
stop
I updated this a while back, but it apparently never got accepted.

0:09
G|-----------------------------------------------------------------|
D|-----------------------------------------------------------------|
A|-5---5---5---5---5---5---5---5-7-8---8---8---8-5-----------------|
D|-------------------------------------------------8-8---8-7-----7-|
   1 + 2 + 3 + 4 + 1 + 2 + 3 + 4 + 1 + 2 + 3 + 4 + 1 + 2 + 3 + 4 +

G|-------------------------------------------------------------------|
D|o-----------------------------------------------------------------o|
A|o-5---5---5---5---5---5---5---5-7-8---8---8---8-5-----------------o|
D|--------------------------------------------------8---8---7---7----|
    1 + 2 + 3 + 4 + 1 + 2 + 3 + 4 + 1 + 2 + 3 + 4 + 1 + 2 + 3 + 4 +

G|-----------------------------------------------------------------|
D|-----------------------------------------------------------------|
A|-5---5---5---5---5---5---5---5-7-8---8---8---8-5-----------------|
D|-------------------------------------------------8-8---8-7-----7-|
   1 + 2 + 3 + 4 + 1 + 2 + 3 + 4 + 1 + 2 + 3 + 4 + 1 + 2 + 3 + 4 +

G|----------------------------------|
D|----------------------------------|
A|----------------------------------|
D|-0-----------------------3--3--3--|
   1 + 2 + 3 + 4 + 1 + 2 + triplet 

0:53
G|-------------------------------------------------------------------|
D|o-----------------------------------------------------------------o|
A|o-----------------------------------------------------------------o|
D|--0-0-0-0-0-0-0-0-0-0-0-0-0-0-0-0-0-0-0-0-0-0-0-0-3p0-2p0-1p0-2p0--|
    1 + 2 + 3 + 4 + 1 + 2 + 3 + 4 + 1 + 2 + 3 + 4 + 1 + 2 + 3 + 4 +

G|-------------------------------------------------------------------|
D|o-----------------------------------------------------------------o|
A|o-----------------------------------------------------------------o|
D|--0-0-0-0-0-0-0-0-0-0-0-0-0-0-1p0-0-0-0-0-0-0-0-0-0-0-0-0-0-0-1p0--|
    1 + 2 + 3 + 4 + 1 + 2 + 3 + 4 + 1 + 2 + 3 + 4 + 1 + 2 + 3 + 4 +

1:12
G|-----------------------------------------------------------------|
D|-----------------------------------------------------------------|
A|-----5-------------------------------------------1-------0-------|
D|-0-0-----------------------------3-------------------------------|
   1 + 2 + 3 + 4 + 1 + 2 + 3 + 4 + 1 + 2 + 3 + 4 + 1 + 2 + 3 + 4 +

G|-----------------------------------------------------------------|
D|-----------------------------------------------------------------|
A|-----------------------------------------------------------------|
D|-0-------------------------------3-------------/-8-------7-------|
   1 + 2 + 3 + 4 + 1 + 2 + 3 + 4 + 1 + 2 + 3 + 4 + 1 + 2 + 3 + 4 +

G|-----------------------------------------------------------------|
D|-----------------------------------------------------------------|
A|-5-----------------------------------------------1-1---1-0---0---|
D|---------------------------------3-------------------------------|
   1 + 2 + 3 + 4 + 1 + 2 + 3 + 4 + 1 + 2 + 3 + 4 + 1 + 2 + 3 + 4 +

1:40
G|-----------------------------------------------------------------|
D|-----------------------------------------------------------------|
A|-1---1---1-1-1---1---1---1-1-1---1---1---1-1-1---1---1---1-1-1---|
D|-----------------------------------------------------------------|
   1 + 2 + 3 + 4 + 1 + 2 + 3 + 4 + 1 + 2 + 3 + 4 + 1 + 2 + 3 + 4 +

G|-----------------------------------------------------------------|
D|-----------------------------------------------------------------|
A|-------------------------------------------------5---5---0-0-0---|
D|-3---3---3-3-3---3---3---3-3-3---0---0---0-0-0-------------------|
   1 + 2 + 3 + 4 + 1 + 2 + 3 + 4 + 1 + 2 + 3 + 4 + 1 + 2 + 3 + 4 +

G|-----------------------------------------------------------------|
D|-----------------------------------------------------------------|
A|-1---1---1-1-1---1---1---1-1-1---1---1---1-1-1---1---1---1-1-1---|
D|-----------------------------------------------------------------|
   1 + 2 + 3 + 4 + 1 + 2 + 3 + 4 + 1 + 2 + 3 + 4 + 1 + 2 + 3 + 4 +

G|-----------------------------------------------------------------|
D|-----------------------------------------------------------------|
A|---------------------------------------------------------0---0---|
D|-3---3---3-3-3---3---3---3-3-3---0---0---0-0-0---0-0-0-----------|
   1 + 2 + 3 + 4 + 1 + 2 + 3 + 4 + 1 + 2 + 3 + 4 + 1 + 2 + 3 + 4 +

1:59
G|-----------------------------------------------------------------|
D|-----------------------------------------------------------------|
A|-------------------------------------------------1-------0-------|
D|-0-------------------------------3-------------------------------|
   1 + 2 + 3 + 4 + 1 + 2 + 3 + 4 + 1 + 2 + 3 + 4 + 1 + 2 + 3 + 4 +

G|-----------------------------------------------------------------|
D|-----------------------------------------------------------------|
A|-------------------------------------------------1-------0-------|
D|-0-------------------------------3-------------------------------|
   1 + 2 + 3 + 4 + 1 + 2 + 3 + 4 + 1 + 2 + 3 + 4 + 1 + 2 + 3 + 4 +

G|-----------------------------------------------------------------|
D|-----------------------------------------------------------------|
A|-------------------------------------------------1-1---1-0---0---|
D|-0-------------------------------3-------------------------------|
   1 + 2 + 3 + 4 + 1 + 2 + 3 + 4 + 1 + 2 + 3 + 4 + 1 + 2 + 3 + 4 +

2:27
G|------------------------------------------------------------------|
D|o-----------------------------------------------------------------|
A|o-1---1---1-1-1---1---1---1-1-1---1---1---1-1-1---1---1---1-1-1---|
D|------------------------------------------------------------------|
    1 + 2 + 3 + 4 + 1 + 2 + 3 + 4 + 1 + 2 + 3 + 4 + 1 + 2 + 3 + 4 +

G|------------------------------------------------------------------|
D|-----------------------------------------------------------------o|
A|-------------------------------------------------5---5---0-0-0---o|
D|-3---3---3-3-3---3---3---3-3-3---0---0---0-0-0--------------------|
   1 + 2 + 3 + 4 + 1 + 2 + 3 + 4 + 1 + 2 + 3 + 4 + 1 + 2 + 3 + 4 +

2:46
G|-----------------------------------------------------------------|
D|-----------------------------------------------------------------|
A|-5---------------------------------------------------------------|
D|-----0-0-0---0-0-0---0-0-0---0-0-0---0-0-0---0-0-0---0-0-0---0-0-|
   1 + 2 + 3 + 4 + 1 + 2 + 3 + 4 + 1 + 2 + 3 + 4 + 1 + 2 + 3 + 4 +

G|-----------------------------------------------------------------|
D|-----------------------------------------------------------------|
A|-----------------------------------------------------------------|
D|-0---0-0-0---0-0-2---2-2-2---2-2-3---3-3-3---3-3-5---5-5-5---5---|
   1 + 2 + 3 + 4 + 1 + 2 + 3 + 4 + 1 + 2 + 3 + 4 + 1 + 2 + 3 + 4 +

2:55
G|------------------------------------------------------------------|
D|o-----------------------------------------------------------------|
A|o-1---1---1-1-1---1---1---1-1-1---1---1---1-1-1---1---1---1-1-1---|
D|------------------------------------------------------------------|
    1 + 2 + 3 + 4 + 1 + 2 + 3 + 4 + 1 + 2 + 3 + 4 + 1 + 2 + 3 + 4 +

G|------------------------------------------------------------------|
D|-----------------------------------------------------------------o|
A|-------------------------------------------------5---5---0-0-0---o|x3
D|-3---3---3-3-3---3---3---3-3-3---0---0---0-0-0--------------------|
   1 + 2 + 3 + 4 + 1 + 2 + 3 + 4 + 1 + 2 + 3 + 4 + 1 + 2 + 3 + 4 +

G|-----------------------------------------------------------------|
D|-----------------------------------------------------------------|
A|-1---1---1-1-1---1---1---1-1-1---1---1---1-1-1---1---1---1-1-1---|
D|-----------------------------------------------------------------|
   1 + 2 + 3 + 4 + 1 + 2 + 3 + 4 + 1 + 2 + 3 + 4 + 1 + 2 + 3 + 4 +

G|-----------------------------------------------------------------|
D|-----------------------------------------------------------------|
A|-------------------------------------------------5-------0-------|
D|-3---3---3-3-3---3---3---3-3-3---0---0---0---0-------------------|
   1 + 2 + 3 + 4 + 1 + 2 + 3 + 4 + 1 + 2 + 3 + 4 + 1 + 2 + 3 + 4 +

3:32
G|-----------------------------------------------------------------|
D|-----------------------------------------------------------------|
A|-5---------------------------------------------------------------|
D|-----0-0-0---0-0-0---0-0-0---0-0-0---0-0-0---0-0-0---0-0-0---0-0-|
   1 + 2 + 3 + 4 + 1 + 2 + 3 + 4 + 1 + 2 + 3 + 4 + 1 + 2 + 3 + 4 +

G|-----------------------------------------------------------------|
D|-----------------------------------------------------------------|
A|-----------------------------------------------------------------|
D|-0-------0---0---2-------2---2---3-------3---3---5---5---3---2---|
   1 + 2 + 3 + 4 + 1 + 2 + 3 + 4 + 1 + 2 + 3 + 4 + 1 + 2 + 3 + 4 +

G|-----------------------------------------------------------------|
D|-----------------------------------------------------------------|
A|-----------------------------------------------------------------|
D|-0---0-0-0---0-0-0---0-0-0---0-0-0---0-0-0---0-0-0---0-0-0---0-0-|
   1 + 2 + 3 + 4 + 1 + 2 + 3 + 4 + 1 + 2 + 3 + 4 + 1 + 2 + 3 + 4 +

G|-----------------------------------------------------------------|
D|-----------------------------------------------------------------|
A|-----------------------------------------------------------------|
D|-1---1-1-1---1---1---1-1-1---1-1-1---1-1-1---1-1-1---1-1-1---1-1-|
   1 + 2 + 3 + 4 + 1 + 2 + 3 + 4 + 1 + 2 + 3 + 4 + 1 + 2 + 3 + 4 +

G|-----------------------------------------------------------------|
D|-----------------------------------------------------------------|
A|-----------------------------------------------------------------|
D|-0---0-0-0---0-0-0---0-0-0---0-0-0---0-0-0---0-0-0---0-0-0---0-0-|
   1 + 2 + 3 + 4 + 1 + 2 + 3 + 4 + 1 + 2 + 3 + 4 + 1 + 2 + 3 + 4 +

G|-----------------------------------------------------------------|
D|-----------------------------------------------------------------|
A|-----------------------------------------------------------------|
D|-1---1-1-1---1-1-1---1-1-1---1-1-1---1-1-1---1---1---1---1---1---|
   1 + 2 + 3 + 4 + 1 + 2 + 3 + 4 + 1 + 2 + 3 + 4 + 1 + 2 + 3 + 4 +

G|-----------------------------------------------------------------|
D|-----------------------------------------------------------------|
A|-----------------------------------------------------------------|
D|-0---------------------------------------------------------------|
   1 + 2 + 3 + 4 + 1 + 2 + 3 + 4 + 1 + 2 + 3 + 4 + 1 + 2 + 3 + 4 +

G|-----------------------------------------------------------------|
D|-----------------------------------------------------------------|
A|-5-5-5-5-5-5-5-578-8-8-85-------5-5-5-5-5-5-5-578-8-8-85---------|
E|-------------------------66-65-5-------------------------6-6-5-5-|
B|-----------------------------------------------------------------|

G|------------------------------------------------------------------|
D|------------------------------------------------------------------|
A|-5-5-5-5-5-5-5-578-8-8-85--------5-5-5-5-5-5-5-578-8-8-85---------|
E|-------------------------6-6-5-5--------------------------66-65-5-|
B|------------------------------------------------------------------|

0:49
G|-----------|-------------------------------------------|
D|-----------|o-----------------------------------------o|
A|-----------|-------------------------------------------|
E|-----------|o-----------------------------------------o|
B|-3---6-6-6-|--3333-3353-3333-3563-3333-3353-5653-3432--|

1:12
G|----------------------------------------------------------------------------------|
D|----------------------------------------------------------------------------------|
A|---5----8---------5~5~5~5~5~5~5~578~8~8~85-------5~5~5~5~5~5~5~578~8~8~85---------|
E|-------------6-5--------------------------66~65~5------------------------6~6~5~5~-|
B|-33-------------------------------------------------------------------------------|

1:40
G|-----------------------------------------------------------------|
D|o---------------------------------------------------------------o|
A|-----------------------------------------------------------------|
E|o-666-6-6-666-666-666-6-6-666-666-----------------------------5-o|
B|----------------------------------666-6-6-666-666-333-3-3-333----|

1:59
G|-----------------------------------------------------------------------------------|
D|-----------------------------------------------------------------------------------|
A|---5----8---------5~5~5~5~5~5~5~578~8~8~85--------5~5~5~5~5~5~5~578~8~8~85---------|
E|-------------6-5--------------------------6~6~5~5~------------------------66~65~5~-|
B|-33--------------------------------------------------------------------------------|

2:27
G|-----------------------------------------------------------------|
D|o---------------------------------------------------------------o|
A|-----------------------------------------------------------------|
E|o-666-6-6-666-666-666-6-6-666-666-----------------------------5-o|
B|----------------------------------666-6-6-666-666-333-3-3-333----|

2:46
G|-----------------------------------|-------------------------------|
D|-----------------------------------|-------------------------------|
A|-----------------------------------|-------------------------------|
E|-----------------------------------|-----------------------3-333-5-|
B|-6-333-333-333-333-333-333-333-333-|-333-335-555-556-666-66--------|

2:55
G|-----------------------------------------------------------------|
D|o---------------------------------------------------------------o|
A|-----------------------------------------------------------------|
E|o-666-6-6-666-666-666-6-6-666-666-----------------------------5-o|x3
B|----------------------------------666-6-6-666-666-333-3-3-333----|

3:22
G|------------------------------------------------------------------|
D|------------------------------------------------------------------|
A|------------------------------------------------------------------|
E|-666-6-6-666-666-666-6-6-666-666--------------------------------5-|
B|---------------------------------666-6-6-666-666-333333333333333--|

G|-----------------------------------|-------------------------------|
D|-----------------------------------|-------------------------------|
A|-----------------------------------|-------------------------------|
E|-----------------------------------|-----------------------3-333-5-|
B|-6-333-333-333-333-333-333-333-333-|-333-335-555-556-666-66--------|

G|---------------------------------|---------------------------------|
D|---------------------------------|---------------------------------|
A|---------------------------------|---------------------------------|
E|---------------------------------|---------------------------------|
B|-333-333-333-333-333-333-333-334-|-444-444-444-444-444-444-444-443-|

G|---------------------------------|---------------------------------------|
D|---------------------------------|---------------------------------------|
A|---------------------------------|---------------------------------------|
E|---------------------------------|---------------------------------------|
B|-333-333-333-333-333-333-333-334-|-444-444-444-444-444-4-4-4-4-4-4-4-3~~-|

Tabbed by Dave Vucko

            
            
Suggest correction
Creating personal tab
Creating personal tab
You can edit any tab online and save it as your Personal.

You can edit, replace or remove any tab part or add personal notes – all changes will be seen only by you.

Personal tabs can be accessed anytime from any device, even offline.
Learn more »
comments
print report bad tab
2 comments total.
0 reply
wesselrockt 194 Apr 13, 2012 11:08 AM

notes are right, but he actually plays it on a 4 string dropped in D ;)

0 reply
Fireboy9490 10 Jan 04, 2013 11:20 AM

Ah, I was wondering about this as I knew that Anders uses a 4 string Music Man bass live on this song. Thanks.

guest
You may want to rate the tab now too:
select rating
Wanna post a correction for this tab? Suggest correction