Oops, an error
Loading. Please wait.

Still Counting Tab

version 1
version 1
71,435 views 39 this week
1 commentread comment
1 2 3 4 5
x 7
add to favorites
launch autoscroll
font size
0
reset
how to read this tab
guitar tuner
Autoscroll
slow
fast
+/-
esc
set tempo
stop
Help us to improve Ultimate-Guitar.com Take our survey!
×
Author
Difficulty
Tuning
novice
D A D G B E
Tabbed by: Arding

Volbeat - Still Counting

This is my first tab. It's not perfect but I'm pretty happy with it.

p - pull off
h - hammer on

Intro:

Dm

Dm / F / Bb / A /

Dm
"Counting all the asshole in the room,
                        F              Bb A
well I'm definitely not alone, I'm not alone
         Dm
You're a liar you're cheater you're a fool,
                         F                    Bb A
Well that's just like me yohoo, and I know you too
   Dm
Mr.Perfect don't exist my little friend, 
                  F                  Bb A
and I tell you it again, and I do it again
Dm
Counting all the asshole in the room,
                        F              Bb A
well I'm definitely not alone, I'm not alone"

E||----------------|----------------|----------------|---------|
B||----------------|----------------|----------------|---------|
G||----------------|----------------|----------------|---------|
D||0-0-0-0-0-0-0-0-|0-0-0-0-0-0-0-0-|0-0-0-0-0-0-0-0-|-3--3--1-|
A||0-0-0-0-0-0-0-0-|0-0-0-0-0-0-0-0-|0-0-0-0-0-0-0-0-|-3--3--1-|
D||0-0-0-0-0-0-0-0-|0-0-0-0-0-0-0-0-|0-0-0-0-0-0-0-0-|-3--3--1-|


E||----------------|----------------|----------------|------------------|
B||----------------|----------------|----------------|------------------|
G||----------------|----------------|----------------|------------------|
D||0-0-0-0-0-0-0-0-|0-0-0-0-0-0-0-0-|0-0-0-0-0-0-0-0-|-0-3-0-0-0-1-0-1-0| x2
A||0-0-0-0-0-0-0-0-|0-0-0-0-0-0-0-0-|0-0-0-0-0-0-0-0-|-0-3-0-0-0-1-0-1-0|
D||0-0-0-0-0-0-0-0-|0-0-0-0-0-0-0-0-|0-0-0-0-0-0-0-0-|-0-3-0-0-0-1-0-1-0|


E||----------------|----------------|----------------|----------------|
B||----------------|----------------|----------------|----------------|
G||----------------|----------------|----------------|----------------|
D||0-0-0-0-0-0-0-0-|0-0-0-0-0-0-1-0-|0-0-0-0-0-0-0-0-|0-0-0-0-0-0-1-0-|  x2
A||0-0-0-0-0-0-0-0-|0-0-0-0-0-0-1-0-|0-0-0-0-0-0-0-0-|0-0-0-0-0-0-1-0-|
D||0-0-0-0-0-0-0-0-|0-0-0-0-0-0-1-0-|0-0-0-0-0-0-0-0-|0-0-0-0-0-0-1-0-|

verse:

E||----------------|----------------|-------------------|----------------|
B||----------------|----------------|-------------------|----------------|
G||----------------|----------------|-------------------|----------------|
D||0-0-0-----------|0--5h7-5-7p5-3--|-3--3-3-3--8---8p7-|7---------------|
A||0-0-0-----------|-------------3--|-3--3-3-3--8---8p7-|7---------------|
D||0-0-0-----------|-------------3--|-3--3-3-3--8---8p7-|7---------------|


E||---------------|----------------|-------------------|-----------------|
B||---------------|----------------|-------------------|-----------------|
G||---------------|----------------|-------------------|-----------------|
D||0----7---------|--7-------3-----|-3--3-3-3--8---8p7-|7----------------| x2
A||0-5-----5--3--5|-----5--3-3-----|-3--3-3-3--8---8p7-|7----------------|
D||0--------------|----------3-----|-3--3-3-3--8---8p7-|7----------------|
"Look deep into yourself before you blame all others for betrayal, for betrayal.

I promise, so easy to say, and easy you failed, and you do it again."

Chorus:
                                                                         _
E||---------------|---------------|---------------|---------------------| |
B||---------------|---------------|---------------|---------------------| |
G||---------------|---------------|---------------|---------------------| |
D||8--8--8--8--8--|8--8--8--8--8--|8--8--8--8--8--|8--3--3--3--3--3--3--| |
A||8--8--8--8--8--|8--8--8--8--8--|8--8--8--8--8--|8--3--3--3--3--3--3--| |
D||8--8--8--8--8--|8--8--8--8--8--|8--8--8--8--8--|8--3--3--3--3--3--3--| |
                                                                          |x2
                                                                          |
E||---------------|---------------|                                       |
B||---------------|---------------|                                       |
G||---------------|---------------|                                       |
D||3--2--0--0--0--|0--0--0--7--7--|                                       |
A||3--2--0--0--0--|0--0--0--7--7--|                                       |
D||3--2--0--0--0--|0--0--0--7--7--|                                      _|
"Well the music seems do cover and all the liquid do the colours,

well I turn my back and go for all the better things in order"

Verse:

E||----------------|----------------|-------------------|----------------|
B||----------------|----------------|-------------------|----------------|
G||----------------|----------------|-------------------|----------------|
D||0---------------|0--5h7-5-7p5-3--|-3--3-3-3--8---8p7-|7---------------|
A||0---------------|-------------3--|-3--3-3-3--8---8p7-|7---------------|
D||0---------------|-------------3--|-3--3-3-3--8---8p7-|7---------------|


E||---------------|----------------|-------------------|-----------------|
B||---------------|----------------|-------------------|-----------------|
G||---------------|----------------|-------------------|-----------------|
D||0----7---------|--7-------3-----|-3--3-3-3--8---8p7-|7----------------| x2
A||0-5-----5--3--5|-----5--3-3-----|-3--3-3-3--8---8p7-|7----------------|
D||0--------------|----------3-----|-3--3-3-3--8---8p7-|7----------------|
"Well maybe you think your lie is safe but I read you like a letter, yeah like a letter

Your charm do not evens the pain it feeds me with rage, and you do it again"


[Chorus]


Break:

E||---------------|--------------|--------------|-------------|
B||---------------|--------------|--------------|-------------|
G||---------------|--------------|--------------|-------------|
D||0--0-0-0--0-0-0|--0-0-0--0-0-0|--0-0-0--0-0-0|--0-0-0--0-0-|
A||0--0-0-0--0-0-0|--0-0-0--0-0-0|--0-0-0--0-0-0|--0-0-0--0-0-|
D||0--0-0-0--0-0-0|--0-0-0--0-0-0|--0-0-0--0-0-0|--0-0-0--0-0-|


E||----------------|-------------|----------------|----------------|
B||----------------|-------------|----------------|----------------|
G||----------------|-------------|----------------|----------------|
D||3h5-5-5-5-5h7-7-|7-7-7h8-8-8-8|-8h9-9-9-9------|----------------|
A||----------------|-------------|----------------|----------------|
D||----------------|-------------|----------------|----------------|


[Chorus]

[Chorus]

"And the gangsters keeps on telling..."


Break:

E||---------------|--------------|--------------|-------------|
B||---------------|--------------|--------------|-------------|
G||---------------|--------------|--------------|-------------|
D||0--0-0-0--0-0-0|--0-0-0--0-0-0|--0-0-0--0-0-0|--0-0-0--0-0-|
A||0--0-0-0--0-0-0|--0-0-0--0-0-0|--0-0-0--0-0-0|--0-0-0--0-0-|
D||0--0-0-0--0-0-0|--0-0-0--0-0-0|--0-0-0--0-0-0|--0-0-0--0-0-|


E||----------------|-------------|-----------|
B||----------------|-------------|-----------|
G||----------------|-------------|-----------|
D||3h5-5-5-5-5h7-7-|7-7-7h8-8-8-8|-8h9-9-8-7-|
A||----------------|-------------|-----------|
D||----------------|-------------|-----------|


Outro solo

E||----------------|----------------|-----------------|----------------|
B||----------------|----------------|-----------------|----------------|
G||----------------|----------------|-----------------|----------------|
D||-----14~--------|---14~----------|-15~-------17--15|--14------------|
A||12--------12--12|--------12--13--|------13---------|----------------|
D||----------------|----------------|-----------------|----------------|


E||----------------|-----------------|------------------|-----------------|
B||----------------|-----------------|------------------|-----------------|
G||----------------|-----------------|------------------|-----------------|
D||-----14~--------|---14~-----------|------------------|----------------0|
A||12--------12--12|--------12--12h13|--12h13---10-12-13|----12----10----0|
D||----------------|-----------------|------------------|----------------0|

Hold until end.
Suggest correction
comments
print report bad tab
1 comment total.
0 reply
Audible Warfare 806 Jul 20, 2014 03:42 AM

Clearly wrong.

guest
You may want to rate the tab now too:
select rating
Wanna post a correction for this tab? Suggest correction