Oops, an error
Loading. Please wait.

The Bliss tab

version 1
version 1

Whole song

Interactive

by Volbeat
8,347 views 24 this week
1 commentread comment
1 2 3 4 5
x 8
add to favorites
×
Save as Personal and add changes to this tab that will be seen only by you. Learn more ›
×
You can save this tab as Personal to edit and correct it or add notes. All changes will be seen only by you. Learn more »
launch autoscroll
font size
0
reset
how to read this tab
guitar tuner
edit
Autoscroll
slow
fast
+/-
esc
set tempo
stop
Tabs for this awesome new Volbest song, was nowhere to be found, so I made one..
This is done by ear, so not 100% accurate, but I like the way it sounds.. :P

I have a cover of the song, and I´ll have it up on youtube as soon as they change their policy for use of the
song.

This tab also works for "For Evigt", which is this song with danish musician Johan Olsen singing a danish
version of the chorus.

In the mean time get busy learning  \m/
[Verse 1]

   Memory, your lamp light is burning holes
D|---------------------------------------------------------------------------|
A|---------------------------------------------------------------------------|
F|-9-------------------------------------------------------------------------|
C|-9------9-------------------11---------------------------------------------|
G|-7------9-------------------11---------------------------------------------|
D|--------7-------------------9----------------------------------------------|
  (pm)   (pm)                (pm)
   
   Recover the damage, bring it all home
D|---------------------------------------------------------------------------|
A|---------------------------------------------------------------------------|
F|---------------------------------------------------------------------------|
C|-------------7--------------------9----------------------------------------|
G|-------------7--------------------9----------------------------------------|
D|-------------5--------------------7----------------------------------------|
              (pm)                 (pm)
  
    Follow the bliss just like Summer song
D|---------------------------------------------------------------------------|
A|---------------------------------------------------------------------------|
F|----9----------------------------------------------------------------------|
C|----9---------9-------------11---------------------------------------------|
G|----7---------9-------------11---------------------------------------------|
D|--------------7-------------9----------------------------------------------|
     (pm)      (pm)          (pm)- with variation, listen to song to get the idea

    Please stay there forever, I'll try to remember
D|---------------------------------------------------------------------------|
A|---------------------------------------------------------------------------|
F|---------------------------------------------------------------------------|
C|--------------------7--------------------9---------------------------------|
G|--------------------7--------------------9---------------------------------|
D|--------------------5--------------------7---------------------------------|
                     (pm)- WV             (pm)- WV

   Come home
D|---------------------------------------------------------------------------|
A|---------------------------------------------------------------------------|
F|-------9---------------9-9-9--9-9-9--9-----9-------------------------------|
C|-------9---------------9-9-9--9-9-9--9-----9-9-----------------------------|
G|-------7---------------7-7-7--7-7-7--7-----7-9-----------------------------|
D|------------------------x-x-x----------------7-----------------------------|
                                           (pm)

   Memory, you gave me another note
D|---------------------------------------------------------------------------|
A|---------------------------------------------------------------------------|
F|-9-------------------------------------------------------------------------|
C|-9-----9--------------11---------------------------------------------------|
G|-7-----9--------------11---------------------------------------------------|
D|-------7--------------9----------------------------------------------------|
  (pm)   (pm)          (pm)- WV

   A voice that is endless, bring it all home
D|---------------------------------------------------------------------------|
A|---------------------------------------------------------------------------|
F|---------------------------------------------------------------------------|
C|-----------------7--------------------9---9h11-9-----9---9h11-9---9-9------|
G|-----------------7--------------------9----------9---9----------9-9-9------|
D|-----------------5--------------------7-X----------X-7-X----------7-7------|
                 (pm)- WV                                          (pm)

   Oh what it is feels like a Summer song
D|---------------------------------------------------------------------------|
A|---------------------------------------------------------------------------|
F|----9----------------------------------------------------------------------|
C|----9--------9--------------11---------------------------------------------|
G|----7--------9--------------11---------------------------------------------|
D|-------------7--------------9----------------------------------------------|
     (pm)     (pm)           (pm)- WV

   I'll stay here forever, her face I remember
D|---------------------------------------------------------------------------|
A|---------------------------------------------------------------------------|
F|---------------------------------------------------------------------------|
C|-------------------7------------------9------------------------------------|
G|-------------------7------------------9------------------------------------|
D|-------------------5------------------7------------------------------------|
                    (pm)- WV           (pm)-WV
D|---------------------------------------------------------------------------|
A|---------------------------------------------------------------------------|
F|--------11-----11/13-13br-11-9-9-11p9p8~-----------------------------------|
C|--------11---11------------------------------------------------------------|
G|--------9----9-------------------------------------------------------------|
D|---------------------------------------------------------------------------|


[Chorus]

   Presenting a new beginning
D|---------------------------------------------------------------------------|
A|---------------------------------------------------------------------------|
F|--------------------9------------------------------------------------------|
C|----7---------------9-----11-----------------------------------------------|
G|----7---------------7-----11-----------------------------------------------|
D|----5---------------------9------------------------------------------------|

   Forever you and I
D|---------------------------------------------------------------------------|
A|---------------------------------------------------------------------------|
F|------------------9---9-8/9---9---9---9------------------------------------|
C|---7--------------9---9-8/9---9---9---9------------------------------------|
G|---7--------------7---7-6/7---7---7---7------------------------------------|
D|---5----------------X-------X---X------------------------------------------|

   And when the morning gets lonely
D|---------------------------------------------------------------------------|
A|---------------------------------------------------------------------------|
F|---------------------------------------------------------------------------|
C|-------------7-------------9-----------------------------------------------|
G|-------------7-------------9-----------------------------------------------|
D|-------------5-------------7-----------------------------------------------|
   And life is out of sight
D|---------------------------------------------------------------------------|
A|---------------------------------------------------------------------------|
F|----9----------------------------------------------------------------------|
C|----9-----------------7----------------------------------------------------|
G|----7-----------------7----------------------------------------------------|
D|----------------------5----------------------------------------------------|
  Then we'll be leaving together, you and I
D|---------------------------------------------------------------------------|
A|---------------------------------------------------------------------------|
F|-----------------------------------------9----9-9-9--9-9-9--9-----9--------|
C|-------------------------9---------------9----9-9-9--9-9-9--9-----9-9------|
G|-------------------------9---------------7----7-7-7--7-7-7--7-----7-9------|
D|-------------------------7---------------------x-x-x----------------7------|
                                                                  (pm)
                                
[Verse 2]

   Happiness, I'm sorry you've been on hold
D|---------------------------------------------------------------------------|
A|---------------------------------------------------------------------------|
F|-9-------------------------------------------------------------------------|
C|-9-----9---------------------11--------------------------------------------|
G|-7-----9---------------------11--------------------------------------------|
D|-------7---------------------9---------------------------------------------|
  (pm)   (pm)                (pm)- WV

  The doors will be open, bring it all home
D|---------------------------------------------------------------------------|
A|---------------------------------------------------------------------------|
F|---------------------------------------------------------------------------|
C|------------------7-------------------9---9h11-9-----9---9h11-9---9-9------|
G|------------------7-------------------9----------9---9----------9-9-9------|
D|------------------5-------------------7-X----------X-7-X----------7-7------|
                  (pm)- WV                                          (pm)

   Cause what it is feels like a Summer song
D|---------------------------------------------------------------------------|
A|---------------------------------------------------------------------------|
F|-------9-------------------------------------------------------------------|
C|-------9--------9--------------11------------------------------------------|
G|-------7--------9--------------11------------------------------------------|
D|----------------7--------------9-------------------------------------------|
        (pm)     (pm)           (pm)- WV

   I'll stay here forever, now that I remember
D|---------------------------------------------------------------------------|
A|---------------------------------------------------------------------------|
F|---------------------------------------------------------------------------|
C|-------------------7------------------9------------------------------------|
G|-------------------7------------------9------------------------------------|
D|-------------------5------------------7------------------------------------|
                    (pm)- WV           (pm)-WV
D|---------------------------------------------------------------------------|
A|---------------------------------------------------------------------------|
F|--------11-----11/13-13br-11-9-9-11p9p8~------------- ---------------------|
C|--------11---11------------------------------------------------------------|
G|--------9----9-------------------------------------------------------------|
D|---------------------------------------------------------------------------|


[Chorus]

   Presenting a new beginning
D|---------------------------------------------------------------------------|
A|---------------------------------------------------------------------------|
F|--------------------9------------------------------------------------------|
C|----7---------------9-----11-----------------------------------------------|
G|----7---------------7-----11-----------------------------------------------|
D|----5---------------------9------------------------------------------------|

   Forever you and I
D|---------------------------------------------------------------------------|
A|---------------------------------------------------------------------------|
F|------------------9---9-8/9---9---9---9------------------------------------|
C|---7--------------9---9-8/9---9---9---9------------------------------------|
G|---7--------------7---7-6/7---7---7---7------------------------------------|
D|---5----------------X-------X---X------------------------------------------|

   And when the morning gets lonely
D|---------------------------------------------------------------------------|
A|---------------------------------------------------------------------------|
F|---------------------------------------------------------------------------|
C|-------------7-------------9-----------------------------------------------|
G|-------------7-------------9-----------------------------------------------|
D|-------------5-------------7-----------------------------------------------|
   
   And life is out of sight
D|---------------------------------------------------------------------------|
A|---------------------------------------------------------------------------|
F|----9----------------------------------------------------------------------|
C|----9-----------------7----------------------------------------------------|
G|----7-----------------7----------------------------------------------------|
D|----------------------5----------------------------------------------------|
  
  Then we'll be leaving together, you and I
D|---------------------------------------------------------------------------|
A|---------------------------------------------------------------------------|
F|-----------------------------------------9----9-9-9--9-9-9--9-----9--------|
C|-------------------------9---------------9----9-9-9--9-9-9--9-----9-9------|
G|-------------------------9---------------7----7-7-7--7-7-7--7-----7-9------|
D|-------------------------7---------------------x-x-x----------------7------|
                                                                  (pm)
                                                                               
[Bridge]

D|---------------------------------------------------------------------------|
A|---------------------------------------------------------------------------|
F|----9-------------------------9--------------------------------------------|
C|----9------------7------------9-----------7--------------------------------|
G|----7------------7------------7-----------7--------------------------------|
D|----0------------5------------0-----------5--------------------------------|

   For all these symbols don't open our eyes
D|---------------------------------------------------------------------------|
A|---------------------------------------------------------------------------|
F|---------------11----------------------------------------------------------|
C|---------------11--------------------9-------------------------------------|
G|---------------9---------------------9-------------------------------------|
D|-------------------------------------7-------------------------------------|

   We'll close them instead, leave the messenger behind
D|---------------------------------------------------------------------------|
A|---------------------------------------------------------------------------|
F|-------------------9-------------------------------------------------------|
C|-------------------9-----------------------------7-------------------------|
G|-------------------7-----------------------------7-------------------------|
D|-------------------------------------------------5-------------------------|

   But one day we will know...
D|---------------------------------------------------------------------------|
A|---------------------------------------------------------------------------|
F|---------------------------------------------------------------------------|
C|---------------------9-----------------------------------------------------|
G|---------------------9-----------------------------------------------------|
D|---------------------7-----------------------------------------------------|


[Chorus]

   Presenting a new beginning
D|---------------------------------------------------------------------------|
A|---------------------------------------------------------------------------|
F|--------------------9------------------------------------------------------|
C|----7---------------9-----11-----------------------------------------------|
G|----7---------------7-----11-----------------------------------------------|
D|----5---------------------9------------------------------------------------|
     (pm)            (pm)  (pm)
   Forever you and I
D|---------------------------------------------------------------------------|
A|---------------------------------------------------------------------------|
F|------------------9---9-8/9---9---9---9------------------------------------|
C|---7--------------9---9-8/9---9---9---9------------------------------------|
G|---7--------------7---7-6/7---7---7---7------------------------------------|
D|---5----------------X-------X---X------------------------------------------|
    (pm)           (pm) ( pm ) (pm)(pm)(pm)
   And when the morning gets lonely
D|---------------------------------------------------------------------------|
A|---------------------------------------------------------------------------|
F|---------------------------------------------------------------------------|
C|-------------7-------------9-----------------------------------------------|
G|-------------7-------------9-----------------------------------------------|
D|-------------5-------------7-----------------------------------------------|
              (pm)          (pm)
   And life is out of sight
D|---------------------------------------------------------------------------|
A|---------------------------------------------------------------------------|
F|----9----------------------------------------------------------------------|
C|----9-----------------7----------------------------------------------------|
G|----7-----------------7----------------------------------------------------|
D|----------------------5----------------------------------------------------|
     (pm)              (pm)
   Then we'll be leaving, then we'll be leaving...
D|---------------------------------------------------------------------------|
A|---------------------------------------------------------------------------|
F|---------------------------------------------------------------------------|
C|------7-------------------------------9---------------------------9--------|
G|------7-------------------------------9---------------------------9--------|
D|------5-------------------------------7---------------------------7--------|
       (pm)                            (pm)- slightly letting off     and stop!

   Presenting a new beginning
D|---------------------------------------------------------------------------|
A|---------------------------------------------------------------------------|
F|--------------------9------------------------------------------------------|
C|----7---------------9-----11-----------------------------------------------|
G|----7---------------7-----11-----------------------------------------------|
D|----5---------------------9------------------------------------------------|

   Forever you and I
D|---------------------------------------------------------------------------|
A|---------------------------------------------------------------------------|
F|------------------9---9-8/9---9---9---9------------------------------------|
C|---7--------------9---9-8/9---9---9---9------------------------------------|
G|---7--------------7---7-6/7---7---7---7------------------------------------|
D|---5----------------X-------X---X------------------------------------------|

   And when the morning gets lonely
D|---------------------------------------------------------------------------|
A|---------------------------------------------------------------------------|
F|---------------------------------------------------------------------------|
C|-------------7-------------9-----------------------------------------------|
G|-------------7-------------9-----------------------------------------------|
D|-------------5-------------7-----------------------------------------------|
   And life is out of sight
D|---------------------------------------------------------------------------|
A|---------------------------------------------------------------------------|
F|----9----------------------------------------------------------------------|
C|----9-----------------7----------------------------------------------------|
G|----7-----------------7----------------------------------------------------|
D|----------------------5----------------------------------------------------|
  Then we'll be leaving together, you and I
D|---------------------------------------------------------------------------|
A|---------------------------------------------------------------------------|
F|-----------------------------------------9----9-9-9--9-9-9-----------------|
C|-------------------------9---------------9----9-9-9--9-9-9-----------------|
G|-------------------------9---------------7----7-7-7--7-7-7-----------------|
D|-------------------------7---------------------x-x-x-----------------------|

   Then We´ll be leaving together, you and I
D|---------------------------------------------------------------------------|
A|---------------------------------------------------------------------------|
F|-----------------------------------------9----9-9-9--9-9-9-----------------|
C|---------------7---------9---------------9----9-9-9--9-9-9-----------------|
G|---------------7---------9---------------7----7-7-7--7-7-7-----------------|
D|---------------5---------7---------------------x-x-x-----------------------|

   Then We´ll be leaving together, you and I
D|---------------------------------------------------------------------------|
A|---------------------------------------------------------------------------|
F|-----------------------------------------9---------------------------------|
C|---------------7---------9---------------9---------------------------------|
G|---------------7---------9---------------7---------------------------------|
D|---------------5---------7-------------------------------------------------|
                                                               



************************************

| h   Hammer-on
| p   Pull-off
| r   Release
| b   Bend
| br  Bend release
| /   Slide up
| ~   Vibrato
| pm  Palm mute
| WV  With Variation

************************************

            
            
Suggest correction
Creating personal tab
Creating personal tab
You can edit any tab online and save it as your Personal.

You can edit, replace or remove any tab part or add personal notes – all changes will be seen only by you.

Personal tabs can be accessed anytime from any device, even offline.
Learn more »
comments
print report bad tab
1 comment total.
0 reply
pressureproject 501 Jul 10, 2016 09:25 AM

Where's the Banjo part, BRO!!!????

haha...just kidding! Good job.

guest
You may want to rate the tab now too:
select rating
Wanna post a correction for this tab? Suggest correction