Oops, an error
Loading. Please wait.

The Loas Crossroad bass

version 1
version 1

Whole song

Interactive

by Volbeat
25 views 1 this week
no commentswrite comment
1 2 3 4 5
3 more votes to show rating
add to favorites
×
Save as Personal and add changes to this tab that will be seen only by you. Learn more ›
×
You can save this tab as Personal to edit and correct it or add notes. All changes will be seen only by you. Learn more »
launch autoscroll
font size
0
reset
guitar tuner
edit
Autoscroll
slow
fast
+/-
esc
set tempo
stop
[Intro]

G|------------|--------------|------------|-------------------------|
D|------------|--------------|------------|-------------------------|
A|------------|--------------|------------|-------------------------|
E|-0~~~~~~~~~~|-(0)~~~~~~~~~~|-0~~~~~~~~~~|-8\7-7-7-7-7-8\7-7-5/7-7-|

G|------------|--------------|------------|------------------|
D|------------|--------------|------------|------------------|
A|------------|--------------|------------|-3-------5--------|
E|-0~~~~~~~~~~|-(0)~~~~~~~~~~|-0~~~~~~~~~~|-----3-------5----|

G|----------------------|----------------------|----------------------|-------------------------|
D|----------------------|----------------------|----------------------|-------------------------|
A|----------------------|----------------------|----------------------|-------------------------|
E|-0-0h12-12--0-0h12-12-|-0-0h12-12--0-0h12h14-|-0-0h12-12--0-0h12-12-|-8\7-7-7-7-7-8\7-7-5/7-7-|

G|----------------------|----------------------|----------------------|------------------||
D|----------------------|----------------------|----------------------|------------------||
A|----------------------|----------------------|----------------------|-3-------5--------||
E|-0-0h12-12--0-0h12-12-|-0-0h12-12--0-0h12h14-|-0-0h12-12--0-0h12-12-|-----3-------5----||


[Verse]

G|-------------------------|-------------------------|-------------------------|-------------------------|
D|-------------------------|-------------------------|-------------------------|-------------------------|
A|-------------------------|-------------------------|-------------------------|-------------------------|
E|-2-2-2-3-2-2-2-2-2-3-2-2-|-2-2-2-3-2-2-2-2-2-3-2-2-|-5-5-5-7-5-5-8-5-5-7-5-5-|-0-0-0-7-0-0-0-0-0-7-0-0-|

G|-------------------------|-------------------------|-------------------------|-------------------------||
D|-------------------------|-------------------------|-------------------------|-------------------------||
A|-------------------------|-------------------------|-------------------------|-------------------------||
E|-2-2-2-3-2-2-2-2-2-3-2-2-|-2-2-2-3-2-2-2-2-2-3-2-2-|-5-5-5-7-5-5-8-5-5-7-5-5-|-0-0-0-7-0-0-0-0-0-7-0-0-||


[Pre-Chorus]

G|---------------------------|---------------------------|-------------------------|------------------------|
D|---------------------------|---------------------------|-------------------------|------------------------|
A|---------------------------|---------------------------|-------------------------|-------------8p10-------|
E|-7--7--7-7-7-7--7--7-7-7-7-|-7--7--7-7-7-7--7--7-7-7-7-|-5--5--5-5-5-5-5-5-5-5-5-|-5--5--5-5-5------8\5-5-|

G|---------------------------|---------------------------|-------------------------|------------------------||
D|---------------------------|---------------------------|-------------------------|------------------------||
A|---------------------------|---------------------------|-------------------------|-------------8p10-------||
E|-7--7--7-7-7-7--7--7-7-7-7-|-7--7--7-7-7-7--7--7-7-7-7-|-5--5--5-5-5-5-5-5-5-5-5-|-5--5--5-5-5------8\5-5-||


[Chorus]

G|--------------------|----------------|----------------|----------------|
D|--------------------|----------------|----------------|----------------|
A|--------------------|-------9~-------|-5~--5-5~-5-5---|----------------|
E|-0~--0h12~-12-12-12\|-7~--7----7-7-7-|--------------7\|-5~--5-5~-5-5\3-|

G|--------------------|----------------|----------------|------------------------|-------------------------||
D|--------------------|----------------|----------------|------------------------|-------------------------||
A|--------------------|-------9~-------|-5~--5-5~-5-5---|------------------------|-------------------------||
E|-0~--0h12~-12-12-12\|-7~--7----7-7-7-|--------------7\|-2~-2-2-2-2-2-2-2-2-2-2-|-2-2-2-2-2-2-2-2-2-2-2-2-||


[Post-Chorus]

G|------------------|------------|--------------|------------|-------------------------||
D|------------------|------------|--------------|------------|-------------------------||
A|-3-------5--------|------------|--------------|------------|-------------------------||
E|-----3-------5----|-0~~~~~~~~~~|-(0)~~~~~~~~~~|-0~~~~~~~~~~|-8\7-7-7-7-7-8\7-7-5/7-7-||


[Verse]

G|-------------------------|-------------------------|-------------------------|-------------------------|
D|-------------------------|-------------------------|-------------------------|-------------------------|
A|-------------------------|-------------------------|-------------------------|-------------------------|
E|-2-2-2-3-2-2-2-2-2-3-2-2-|-2-2-2-3-2-2-2-2-2-3-2-2-|-5-5-5-7-5-5-8-5-5-7-5-5-|-0-0-0-7-0-0-0-0-0-7-0-0-|

G|-------------------------|-------------------------|-------------------------|-------------------------||
D|-------------------------|-------------------------|-------------------------|-------------------------||
A|-------------------------|-------------------------|-------------------------|-------------------------||
E|-2-2-2-3-2-2-2-2-2-3-2-2-|-2-2-2-3-2-2-2-2-2-3-2-2-|-5-5-5-7-5-5-8-5-5-7-5-5-|-0-0-0-7-0-0-0-0-0-7-0-0-||


[Pre-Chorus]

G|---------------------------|---------------------------|-------------------------|------------------------|
D|---------------------------|---------------------------|-------------------------|------------------------|
A|---------------------------|---------------------------|-------------------------|-------------8p10-------|
E|-7--7--7-7-7-7--7--7-7-7-7-|-7--7--7-7-7-7--7--7-7-7-7-|-5--5--5-5-5-5-5-5-5-5-5-|-5--5--5-5-5------8\5-5-|

G|---------------------------|---------------------------|-------------------------|------------------------||
D|---------------------------|---------------------------|-------------------------|------------------------||
A|---------------------------|---------------------------|-------------------------|-------------8p10-------||
E|-7--7--7-7-7-7--7--7-7-7-7-|-7--7--7-7-7-7--7--7-7-7-7-|-5--5--5-5-5-5-5-5-5-5-5-|-5--5--5-5-5------8\5-5-||


[Chorus]

G|--------------------|----------------|----------------|----------------|
D|--------------------|----------------|----------------|----------------|
A|--------------------|-------9~-------|-5~--5-5~-5-5---|----------------|
E|-0~--0h12~-12-12-12\|-7~--7----7-7-7-|--------------7\|-5~--5-5~-5-5\3-|

G|--------------------|----------------|----------------|------------------------|-------------------------||
D|--------------------|----------------|----------------|------------------------|-------------------------||
A|--------------------|-------9~-------|-5~--5-5~-5-5---|------------------------|-------------------------||
E|-0~--0h12~-12-12-12\|-7~--7----7-7-7-|--------------7\|-2~-2-2-2-2-2-2-2-2-2-2-|-2-2-2-2-2-2-2-2-2-2-2-2-||


[Bridge 1]

G|------------|--------------|--------------|---------------|
D|------------|--------------|--------------|---------------|
A|------------|--------------|--------------|---------------|
E|-0~~~~~~~~~~|-(0)~~~~~~~~~~|-(0)~~~~~~~~~~|--(0)~~~~~~~~~~|

G|------------|--------------|--------------|---------------|
D|------------|--------------|--------------|---------------|
A|------------|--------------|--------------|---------------|
E|-0~~~~~~~~~~|-(0)~~~~~~~~~~|-(0)~~~~~~~~~~|--(0)~~~~~~~~~~|

G|------------------------|------------------------|-----------------------|-------------------------|
D|------------------------|------------------------|-----------------------|-------------------------|
A|------------------------|------------------------|-----------------------|-5h7---------10p9--------|
E|-12\-0-0-0-0-0--0-0-0-0-|-10\-0-0-0-0-0--0-0-0-0-|-8\-0-0-0-0-0--0-0-0-0-|-----0-0-0-0------0-7--7-|

G|------------------------|------------------------|-----------------------|-------------------------||
D|------------------------|------------------------|-----------------------|-------------------------||
A|------------------------|------------------------|-----------------------|-------------------------||
E|-12\-0-0-0-0-0--0-0-0-0-|-10\-0-0-0-0-0--0-0-0-0-|-8\-0-0-0-0-0--0-0-0-0-|-5-5-5-5-5-5-5-5-5-5-5-5-||


[Guitar Solo]

G|-------------------------|-------------------------|-------------------------|-------------------------|
D|-------------------------|-------------------------|-------------------------|-------------------------|
A|-------------------------|-------------------------|-------------------------|-------------------------|
E|-2-2-2-2-2-2-2-2-2-2-2-2-|-2-2-2-2-2-2-2-2-2-2-2-2-|-0-0-0-0-0-0-0-0-0-0-0-0-|-0-0-0-0-0-0-0-0-0-0-0-0-|

G|-------------------------|-------------------------|-------------------------|-------------------------|
D|-------------------------|-------------------------|-------------------------|-------------------------|
A|-------------------------|-------------------------|-------------------------|-------------------------|
E|-2-2-2-2-2-2-2-2-2-2-2-2-|-2-2-2-2-2-2-2-2-2-2-2-2-|-0-0-0-0-0-0-0-0-0-0-0-0-|-0-0-0-0-0-0-0-0-0-0-0-0-|

G|-------------------------|-------------------------|-------------------------|-------------------|
D|-------------------------|-------------------------|-------------------------|-------------------|
A|-------------------------|-------------------------|-------------------------|-------------3~----|
E|-5-5-5-5-5-5-5-5-5-5-5-5-|-5-5-5-5-5-5-5-5-5-5-5-5-|-5-5-5-5-5-5-5-5-5-5-5-5-|-3-3-3-3-3-3----3~-|

G|-------------------------|-------------------------|-------------------------|-------------------||
D|-------------------------|-------------------------|-------------------------|-------------------||
A|-------------------------|-------------------------|-------------------------|-------------3~----||
E|-5-5-5-5-5-5-5-5-5-5-5-5-|-5-5-5-5-5-5-5-5-5-5-5-5-|-5-5-5-5-5-5-5-5-5-5-5-5-|-3-3-3-3-3-3----3~-||


[Bridge 2]

G|------------------------|------------------------|-----------------------|-------------------------|
D|------------------------|------------------------|-----------------------|-------------------------|
A|------------------------|------------------------|-----------------------|-5h7---------10p9--------|
E|-12\-0-0-0-0-0--0-0-0-0-|-10\-0-0-0-0-0--0-0-0-0-|-8\-0-0-0-0-0--0-0-0-0-|-----0-0-0-0------0-7--7-|

G|------------------------|------------------------|-----------------------|-------------------------||
D|------------------------|------------------------|-----------------------|-------------------------||
A|------------------------|------------------------|-----------------------|-------------------------||
E|-12\-0-0-0-0-0--0-0-0-0-|-10\-0-0-0-0-0--0-0-0-0-|-8\-0-0-0-0-0--0-0-0-0-|-5-5-5-5-5-5-5-5-5-5-5-5-||


[Bridge 3]

G|------------|--------------|------------|------------|
D|------------|--------------|------------|------------|
A|-5~~~~~~~~~~|-(5)~~~~~~~~~~|------------|------------|
E|------------|--------------|-2~~~~~~~~~~|-0~~~~~~~~~~|

G|------------|--------------|------------|------------|
D|------------|--------------|------------|------------|
A|-5~~~~~~~~~~|-(5)~~~~~~~~~~|------------|------------|
E|------------|--------------|-5~~~~~~~~~~|-0~~~~~~~~~~|

G|------------|--------7-9-7-|------------|------------|
D|------------|------9-------|------------|------------|
A|-5~~~~~~~~~~|-(5)~---------|------------|------------|
E|------------|--------------|-2~~~~~~~~~~|-0~~~~~~~~~~|

G|------------|--------------|------------|------------||
D|------------|--------------|------------|------------||
A|-5~~~~~~~~~~|-(5)~~~~~~~~~~|------------|------------||
E|------------|--------------|-5~~~~~~~~~~|-0~~~~~~~~~~||


[Pre-Chorus]

G|---------------------------|---------------------------|-------------------------|------------------------|
D|---------------------------|---------------------------|-------------------------|------------------------|
A|---------------------------|---------------------------|-------------------------|-------------8p10-------|
E|-7--7--7-7-7-7--7--7-7-7-7-|-7--7--7-7-7-7--7--7-7-7-7-|-5--5--5-5-5-5-5-5-5-5-5-|-5--5--5-5-5------8\5-5-|

G|---------------------------|---------------------------|-------------------------|------------------------||
D|---------------------------|---------------------------|-------------------------|------------------------||
A|---------------------------|---------------------------|-------------------------|-------------8p10-------||
E|-7--7--7-7-7-7--7--7-7-7-7-|-7--7--7-7-7-7--7--7-7-7-7-|-5--5--5-5-5-5-5-5-5-5-5-|-5--5--5-5-5------8\5-5-||


[Chorus]

G|--------------------|----------------|----------------|----------------|
D|--------------------|----------------|----------------|----------------|
A|--------------------|-------9~-------|-5~--5-5~-5-5---|----------------|
E|-0~--0h12~-12-12-12\|-7~--7----7-7-7-|--------------7\|-5~--5-5~-5-5\3-|

G|--------------------|----------------|----------------|----------------|
D|--------------------|----------------|----------------|----------------|
A|--------------------|-------9~-------|-5~--5-5~-5-5---|----------------|
E|-0~--0h12~-12-12-12\|-7~--7----7-7-7-|--------------7\|-5~--5-5~-5-5\3-|

G|----------------|----------------|----------------|----------------|
D|----------------|----------------|----------------|----------------|
A|----------------|----------------|-5~--5-5~-5-5---|----------------|
E|-0~--0-0~-0-0-0-|-7~--7-7~-7-7-7-|--------------7\|-5~--5-5~-5-5\3-|

G|----------------|----------------|----------------|------------------------|-------------------------||
D|----------------|----------------|----------------|------------------------|-------------------------||
A|----------------|----------------|-5~--5-5~-5-5---|------------------------|-------------------------||
E|-0~--0-0~-0-0-0-|-7~--7-7~-7-7-7-|--------------7\|-2~-2-2-2-2-2-2-2-2-2-2-|-2-2-2-2-2-2-2-2-2-2-2-2-||


[Outro]

G|------------------|
D|------------------|
A|-3-------5--------|
E|-----3-------5----|

G|----------------------|----------------------|----------------------|-------------------------|
D|----------------------|----------------------|----------------------|-------------------------|
A|----------------------|----------------------|----------------------|-------------------------|
E|-0-0h12-12--0-0h12-12-|-0-0h12-12--0-0h12h14-|-0-0h12-12--0-0h12-12-|-8\7-7-7-7-7-8\7-7-5/7-7-|

G|----------------------|----------------------|----------------------|------------------|-------------||
D|----------------------|----------------------|----------------------|------------------|-------------||
A|----------------------|----------------------|----------------------|-3-------5--------|-------------||
E|-0-0h12-12--0-0h12-12-|-0-0h12-12--0-0h12h14-|-0-0h12-12--0-0h12-12-|-----3-------5----|-12\-0-0-0-0-||


************************************

| (n) Ghost note
| h   Hammer-on
| p   Pull-off
| /   Slide up
| \   Slide down
| ~   Hold

************************************

            
            
Suggest correction
Creating personal tab
Creating personal tab
You can edit any tab online and save it as your Personal.

You can edit, replace or remove any tab part or add personal notes – all changes will be seen only by you.

Personal tabs can be accessed anytime from any device, even offline.
Learn more »
Give kudos to tab author, rate the tab!
1 2 3 4 5
comments
print report bad tab
guest
You may want to rate the tab now too:
select rating
Wanna post a correction for this tab? Suggest correction