Oops, an error
Loading. Please wait.

Who They Are tab

version 1
version 1

Whole song

Interactive

by Volbeat
769 views 9 this week
no commentswrite comment
1 2 3 4 5
3 more votes to show rating
add to favorites
×
Save as Personal and add changes to this tab that will be seen only by you. Learn more ›
×
You can save this tab as Personal to edit and correct it or add notes. All changes will be seen only by you. Learn more »
launch autoscroll
font size
0
reset
how to read this tab
guitar tuner
edit
Autoscroll
slow
fast
+/-
esc
set tempo
stop
Author
     
+ --------------------------------------------------------------------- +
| Ultimate Guitar Tabs Archive - your #1 source for tabs!               |
| http://www.ultimate-guitar.com/                                       |
|                                                                       |
| Over 800,000 guitar, guitar pro and bass tabs! Also lessons, news,    |
| columns and guitar forums!                                            |
+ --------------------------------------------------------------------- +

-------------------------------------------------------------------------------
                             Who they are - Volbeat
-------------------------------------------------------------------------------

Title: Who they are
Artist: Volbeat
Album: Beyond Hell/Above Heaven
Author: Adam12


Guitar 1

D|---------------------------------|---------------------|---------------------|---------------------|
A|---------------------------------|---------------------|---------------------|---------------------|
F|---------------------------------|---------------------|---------------------|---------------------|
C|---------------------------------|----------------10---|-----------9---------|-8-------------------|
G|---------3---3---3-------3-------|-2---------7---------|------7--------------|-----------10---9----|
D|---------1---1---1-------1-------|-0-------------------|---------------------|---------------------|


D|---------------------|---------------------|---------------------|---------------------|
A|---------------------|---------------------|---------------------|---------------------|
F|---------------------|---------------------|---------------------|---------------------|
C|---------------------|----------------10---|-----------9---------|-8-------------------|
G|------7--------------|-2---------7---------|------7--------------|-----------10---9----|
D|-----------8---------|-0-------------------|---------------------|---------------------|


D|---------------------|---------------------|---------------------|---------------------|
A|---------------------|---------------------|---------------------|---------------------|
F|---------------------|---------------------|---------------------|---------------------|
C|------8----9---------|----------------10---|------9--------------|-8-------------------|
G|---------------------|-2---------7---------|-7-------------------|-----------10---9----|
D|---------------------|-0-------------------|---------------------|---------------------|


D|---------------------|---------------------|---------------------|---------------------|
A|---------------------|---------------------|---------------------|---------------------|
F|---------------------|---------------------|---------------------|---------------------|
C|---------------------|----------------10---|------9--------------|-8-------------------|
G|-7-------------------|-2---------7---------|-7-------------------|-----------10---9----|
D|------8--------------|-0-------------------|---------------------|---------------------|


D|---------------------|---------------------|---------------------|---------------------|
A|---------------------|---------------------|---------------------|---------------------|
F|---------------------|---------------------|---------------------|---------------------|
C|------8----9---------|----------------10---|------9--------------|-8-------------------|
G|---------------------|-2---------7---------|-7-------------------|-----------10---9----|
D|---------------------|-0-------------------|---------------------|---------------------|


D|---------------------|---------------------|---------------------|---------------------|
A|---------------------|---------------------|---------------------|---------------------|
F|---------------------|---------------------|---------------------|---------------------|
C|---------------------|----------------10---|-----------9---------|-8-------------------|
G|-7-------------------|-2---------7---------|------7--------------|-----------10---9----|
D|------8--------------|-0-------------------|---------------------|---------------------|


D|---------------------|---------------------|---------------------|---------------------|
A|---------------------|---------------------|---------------------|---------------------|
F|---------------------|---------------------|---------------------|---------------------|
C|------8----9---------|----------------10---|-----------9---------|-8-------------------|
G|---------------------|-2---------7---------|------7--------------|-----------10---9----|
D|---------------------|-0-------------------|---------------------|---------------------|


D|---------------------|---------------------|---------------------|---------------------|
A|---------------------|---------------------|---------------------|---------------------|
F|---------------------|---------------------|---------------------|---------------------|
C|---------------------|----------------10---|-----------9---------|-8-------------------|
G|-7-------------------|-2---------7---------|------7--------------|-----------10---9----|
D|------8--------------|-0-------------------|---------------------|---------------------|


D|---------------------|------------------------------|------------------------------|
A|---------------------|------------------------------|------------------------------|
F|---------------------|------------------------------|------------------------------|
C|------8----9---------|------------------------------|------------------------------|
G|---------------------|-2-----------------------2----|-2-----------------------2----|
D|---------------------|-0---0---0---0---0---0---0----|-0---0---0---0---0---0---0----|


D|-------------------------------------|-----------------------------------------------------|
A|-------------------------------------|-----------------------------------------------------|
F|-------------------------------------|-----------------------------------------------------|
C|-------------------------------------|-----tr-------tr-------------------------------------|
G|-2-----------------------------------|-7--10-7--10-7--10-7-----------------------7--7--7---|
D|-0---0---0---0---0---0---------------|-----------------------7--7--7---6--6--6-------------|


D|------------------------------|------------------------------|-------------------------------------|
A|------------------------------|------------------------------|-------------------------------------|
F|------------------------------|------------------------------|-------------------------------------|
C|------------------------------|------------------------------|-------------------------------------|
G|-2-----------------------2----|-2-----------------------2----|-2-----------------------------------|
D|-0---0---0---0---0---0---0----|-0---0---0---0---0---0---0----|-0---0---0---0---0---0---------------|


D|----------------------------------------------------|-------------------------------------|
A|----------------------------------------------------|-------------------------------------|
F|----------------------------------------------------|-------------------------------------|
C|----tr--------tr------------------------------------|-------------------------------------|
G|-7--10-7--10-7--10-7----------------------7--7--7---|-------------------------------------|
D|----------------------7--7--7---6--6--6-------------|-0--0--0---0---0---0---0---0--0--0---|


D|-----------------------------------|-----------------------------------------|-----------------------------|
A|-----------------------------------|-----------------------------------------|-----------------------------|
F|-----------------------------------|-----------------------------------------|-----------------------------|
C|-----------------------------------|-----------------------tr------------tr--|-----------------------------|
G|-----------------------------------|---------------------7--10-7--10-7--10-7-|---------------------7--7--7-|
D|-0--0--0--0--0--0---0--0--0--0-----|-0--0--0--0--0--0------------------------|---7--7--7--6--6--6----------|


D|-----------------------------|----------------------------------|--------------------------------------|
A|-----------------------------|----------------------------------|--------------------------------------|
F|-----------------------------|----------------------------------|--------------------------------------|
C|-----------------------------|----------------------------------|----------------------tr--------tr----|
G|-----------------------------|----------------------------------|-------------------7--10-7--10-7--10-7|
D|-0-0-0--0--0--0--0--0--0--0--|-0--0--0--0--0--0--0--0--0--0--0--|0--0--0--0--0--0----------------------|


D|-----------------------------|---------------------------------|-----------------------------------|
A|-----------------------------|---------------------------------|-----------------------------------|
F|-----------------------------|---------------------------------|-----------------------------------|
C|-----------------------------|---------------------------------|-----------------------------------|
G|---------------------7--7--7-|-2-----------2-----------2-------|-----2-----------------------------|
D|--7--7--7---6--6--6----------|-0---0---0---0---0---0---0---0---|-0---0---0---3--3--3---1---1---1---|


D|---------------------------------|-------------------------------------|---------------------------------|
A|---------------------------------|-------------------------------------|---------------------------------|
F|---------------------------------|-------------------------------------|---------------------------------|
C|---------------------------------|-------------------------------------|---------------------------------|
G|-2-----------2-----------2-------|-----2-------------------------------|-2-----------2-----------2-------|
D|-0---0---0---0---0---0---0---0---|-0---0---0---0---0--0--0---0--0--0---|-0---0---0---0---0---0---0---0---|


D|-----------------------------------|---------------------------------|-------------------------------------|
A|-----------------------------------|---------------------------------|-------------------------------------|
F|-----------------------------------|---------------------------------|-------------------------------------|
C|-----------------------------------|---------------------------------|-------------------------------------|
G|-----2-----------------------------|-3-----------3-----------3-------|-----3-------------------------------|
D|-0---0---0---3--3--3---1---1---1---|-1---1---1---1---1---1---1---1---|-1---1---1---1---1--1--1---1--1--1---|


D|---------------------------------|-----------------------------------|---------------------------------|
A|---------------------------------|-----------------------------------|---------------------------------|
F|---------------------------------|-----------------------------------|---------------------------------|
C|---------------------------------|-----------------------------------|---------------------------------|
G|-2-----------2-----------2-------|-----2-----------------------------|-2-----------2-----------2-------|
D|-0---0---0---0---0---0---0---0---|-0---0---0---3--3--3---1---1---1---|-0---0---0---0---0---0---0---0---|


D|-------------------------------------|---------------------------------|-----------------------------------|
A|-------------------------------------|---------------------------------|-----------------------------------|
F|-------------------------------------|---------------------------------|-----------------------------------|
C|-------------------------------------|---------------------------------|-----------------------------------|
G|-----2-------------------------------|-2-----------2-----------2-------|-----2-----------------------------|
D|-0---0---0---0---0--0--0---0--0--0---|-0---0---0---0---0---0---0---0---|-0---0---0---3--3--3---1---1---1---|


D|---------------------------------|-------------------------------------|-----------------------------------|
A|---------------------------------|-------------------------------------|-----------------------------------|
F|---------------------------------|-------------------------------------|-----------------------------------|
C|---------------------------------|-------------------------------------|-----------------------------------|
G|-3-----------3-----------3-------|-----3-------------------------------|-7-H-8-P-7-------------------------|
D|-1---1---1---1---1---1---1---1---|-1---1---1---1---1--1--1---1--1--1---|-----------0---0---0---0---0---0---|


D|---------------------------------|-------------------------------------|---------------------------------|
A|---------------------------------|-------------------------------------|---------------------------------|
F|---------------------------------|-------------------------------------|---------------------------------|
C|-----------------10------9-------|-------------------------------------|---------------------------------|
G|-----7---------------------------|-7-H-8-P-7----------------7-H-8-P-7--|-----10--8---7---8---7-------7---|
D|-0-------0---0-------0-------0---|-----------0---0---0---0-------------|-0-----------------------10------|


D|-----------------------------------|---------------------------------|-------------------------------------|
A|-----------------------------------|---------------------------------|-------------------------------------|
F|-----------------------------------|---------------------------------|-------------------------------------|
C|----tr-----------------------------|-----------------10------9-------|---tr------------------------tr------|
G|-7--8--7---------------------------|-----7---------------------------|-7--8--7-------------------7--8--7---|
D|-----------0---0---0---0---0---0---|-0-------0---0-------0-------0---|-----------0---0---0---0-------------|


D|---------------------------------|---------------------------------|-----------------------------------|
A|---------------------------------|---------------------------------|-----------------------------------|
F|---------------------------------|---------------------------------|-----------------------------------|
C|---------------------------------|---------------------------------|-----------------------------------|
G|-----5---3---2---3---2-------2---|-2-----------2-----------2-------|-----2-----------------------------|
D|-0-----------------------5-------|-0---0---0---0---0---0---0---0---|-0---0---0---3--3--3---1---1---1---|


D|---------------------------------|-------------------------------------|---------------------------------|
A|---------------------------------|-------------------------------------|---------------------------------|
F|---------------------------------|-------------------------------------|---------------------------------|
C|---------------------------------|-------------------------------------|---------------------------------|
G|-2-----------2-----------2-------|-----2-------------------------------|-2-----------2-----------2-------|
D|-0---0---0---0---0---0---0---0---|-0---0---0---0---0--0--0---0--0--0---|-0---0---0---0---0---0---0---0---|


D|-----------------------------------|---------------------------------|-------------------------------------|
A|-----------------------------------|---------------------------------|-------------------------------------|
F|-----------------------------------|---------------------------------|-------------------------------------|
C|-----------------------------------|---------------------------------|-------------------------------------|
G|-----2-----------------------------|-3-----------3-----------3-------|-----3-------------------------------|
D|-0---0---0---3--3--3---1---1---1---|-1---1---1---1---1---1---1---1---|-1---1---1---1---1--1--1---1--1--1---|


D|---------------------------------|-----------------------------------|---------------------------------|
A|---------------------------------|-----------------------------------|---------------------------------|
F|---------------------------------|-----------------------------------|---------------------------------|
C|---------------------------------|-----------------------------------|---------------------------------|
G|-2-----------2-----------2-------|-----2-----------------------------|-2-----------2-----------2-------|
D|-0---0---0---0---0---0---0---0---|-0---0---0---3--3--3---1---1---1---|-0---0---0---0---0---0---0---0---|


D|-------------------------------------|---------------------------------|-----------------------------------|
A|-------------------------------------|---------------------------------|-----------------------------------|
F|-------------------------------------|---------------------------------|-----------------------------------|
C|-------------------------------------|---------------------------------|-----------------------------------|
G|-----2-------------------------------|-2-----------2-----------2-------|-----2-----------------------------|
D|-0---0---0---0---0--0--0---0--0--0---|-0---0---0---0---0---0---0---0---|-0---0---0---3--3--3---1---1---1---|


D|---------------------------------|-------------------------------------|
A|---------------------------------|-------------------------------------|
F|---------------------------------|-------------------------------------|
C|---------------------------------|-------------------------------------|
G|-3-----------3-----------3-------|-----3-------------------------------|
D|-1---1---1---1---1---1---1---1---|-1---1---1---1---1--1--1---1--1--1---|

  Guitar 1
D|---------------------|---------------------|---------------------|---------------------|
A|---------------------|---------------------|---------------------|---------------------|
F|---------------------|---------------------|---------------------|---------------------|
C|-5----5----5----5----|-5----5----5----5----|-5----5----5----5----|---------------------|
G|-3----3----3----3----|-3----3----3----3----|-3----3----3----3----|-3----3----3----3----|
D|---------------------|---------------------|---------------------|-1----1----1----1----|

D|---------------------|---------------------|---------------------|---------------------|
A|---------------------|---------------------|---------------------|---------------------|
F|---------------------|---------------------|---------------------|---------------------|
C|---------------------|---------------------|---------------------|-5----5----5----5----|
G|-3----3----3----3----|-5----5----5----5----|-5----5----5----5----|-3----3----3----3----|
D|-1----1----1----1----|-3----3----3----3----|-3----3----3----3----|---------------------|

                       
  Guitar 2 lead
D|--------------------|--------------------|-----------------------|
A|--------------------|--------------------|-----------------------|
F|---7/9999-7/5-------|---7/9999-7/5-------|---9/10-10-10-10-------|
C|--------------------|--------------------|-----------------10/9--|
G|--------------------|--------------------|-----------------------|
D|--------------------|--------------------|-----------------------|

  Guitar 1
D|---------------------|---------------------|---------------------|---------------------|
A|---------------------|---------------------|---------------------|---------------------|
F|---------------------|---------------------|---------------------|---------------------|
C|---------------------|---------------------|---------------------|-5----5----5----5----|
G|-3----3----3----3----|-5----5----5----5----|-5----5----5----5----|-3----3----3----3----|
D|-1----1----1----1----|-3----3----3----3----|-3----3----3----3----|---------------------|

D|---------------------|---------------------|---------------------|---------------------|
A|---------------------|---------------------|---------------------|---------------------|
F|---------------------|---------------------|---------------------|---------------------|
C|-5----5----5----5----|-5----5----5----5----|-5----5----5----5----|---------------------|
G|-3----3----3----3----|-3----3----3----3----|-3----3----3----3----|-3----3----3----3----|
D|---------------------|---------------------|---------------------|-1----1----1----1----|

D|---------------------|---------------------|---------------------|---------------------------------|
A|---------------------|---------------------|---------------------|---------------------------------|
F|---------------------|---------------------|---------------------|---------------------------------|
C|---------------------|---------------------|---------------------|---------------------------------|
G|-3----3----3----3----|-5----5----5----5----|-5----5----5----5----|-2-----------2-----------2-------|
D|-1----1----1----1----|-3----3----3----3----|-3----3----3----3----|-0---0---0---0---0---0---0---0---|


  Guitar 2 lead
D|--------------------|--------------------|-----------------------|
A|--------------------|--------------------|-----------------------|
F|---7/9999-7/5-------|---7/9999-7/5-------|---9/10-10-10-10-------|
C|--------------------|--------------------|-----------------10/9--|
G|--------------------|--------------------|-----------------------|
D|--------------------|--------------------|-----------------------|


D|-----------------------------------|---------------------------------|-------------------------------------|
A|-----------------------------------|---------------------------------|-------------------------------------|
F|-----------------------------------|---------------------------------|-------------------------------------|
C|-----------------------------------|---------------------------------|-------------------------------------|
G|-----2-----------------------------|-2-----------2-----------2-------|-----2-------------------------------|
D|-0---0---0---3--3--3---1---1---1---|-0---0---0---0---0---0---0---0---|-0---0---0---0---0--0--0---0--0--0---|


D|---------------------------------|-----------------------------------|---------------------------------|
A|---------------------------------|-----------------------------------|---------------------------------|
F|---------------------------------|-----------------------------------|---------------------------------|
C|---------------------------------|-----------------------------------|---------------------------------|
G|-2-----------2-----------2-------|-----2-----------------------------|-3-----------3-----------3-------|
D|-0---0---0---0---0---0---0---0---|-0---0---0---3--3--3---1---1---1---|-1---1---1---1---1---1---1---1---|


D|-------------------------------------|---------------------------------|-----------------------------------|
A|-------------------------------------|---------------------------------|-----------------------------------|
F|-------------------------------------|---------------------------------|-----------------------------------|
C|-------------------------------------|---------------------------------|-----------------------------------|
G|-----3-------------------------------|-2-----------2-----------2-------|-----2-----------------------------|
D|-1---1---1---1---1--1--1---1--1--1---|-0---0---0---0---0---0---0---0---|-0---0---0---3--3--3---1---1---1---|


D|---------------------------------|-------------------------------------|---------------------------------|
A|---------------------------------|-------------------------------------|---------------------------------|
F|---------------------------------|-------------------------------------|---------------------------------|
C|---------------------------------|-------------------------------------|---------------------------------|
G|-2-----------2-----------2-------|-----2-------------------------------|-2-----------2-----------2-------|
D|-0---0---0---0---0---0---0---0---|-0---0---0---0---0--0--0---0--0--0---|-0---0---0---0---0---0---0---0---|


D|-----------------------------------|---------------------------------|-------------------------------------|
A|-----------------------------------|---------------------------------|-------------------------------------|
F|-----------------------------------|---------------------------------|-------------------------------------|
C|-----------------------------------|---------------------------------|-------------------------------------|
G|-----2-----------------------------|-3-----------3-----------3-------|-----3-------------------------------|
D|-0---0---0---3--3--3---1---1---1---|-1---1---1---1---1---1---1---1---|-1---1---1---1---1--1--1---1--1--1---|

  Guitar 1
D|---------------------|---------------------|---------------------|---------------------|
A|---------------------|---------------------|---------------------|---------------------|
F|---------------------|---------------------|---------------------|---------------------|
C|-5----5----5----5----|-5----5----5----5----|-5----5----5----5----|-5----5----5----5----|
G|-3----3----3----3----|-3----3----3----3----|-3----3----3----3----|-3----3----3----3----|
D|---------------------|---------------------|---------------------|---------------------|

D|---------------------|---------------------|---------------------|---------------------|
A|---------------------|---------------------|---------------------|---------------------|
F|---------------------|---------------------|---------------------|---------------------|
C|---------------------|---------------------|---------------------|---------------------|
G|-3----3----3----3----|-3----3----3----3----|-5----5----5----5----|-5----5----5----5----|
D|-1----1----1----1----|-1----1----1----1----|-3----3----3----3----|-3----3----3----3----|


 Guitar 2 lead
D|--------------------|--------------------|-----------------------|
A|--------------------|--------------------|-----------------------|
F|---7/9999-7/5-------|---7/9999-7/5-------|---9/10-10-10-10-------|
C|--------------------|--------------------|-----------------10/9--|
G|--------------------|--------------------|-----------------------|
D|--------------------|--------------------|-----------------------|

  Guitar 1
D|---------------------|---------------------|---------------------|---------------------|
A|---------------------|---------------------|---------------------|---------------------|
F|---------------------|---------------------|---------------------|---------------------|
C|-5----5----5----5----|-5----5----5----5----|-5----5----5----5----|-5----5----5----5----|
G|-3----3----3----3----|-3----3----3----3----|-3----3----3----3----|-3----3----3----3----|
D|---------------------|---------------------|---------------------|---------------------|

D|---------------------|---------------------|---------------------|---------------------|
A|---------------------|---------------------|---------------------|---------------------|
F|---------------------|---------------------|---------------------|---------------------|
C|---------------------|---------------------|---------------------|---------------------|
G|-3----3----3----3----|-3----3----3----3----|-5----5----5----5----|-5----5----5----5----|
D|-1----1----1----1----|-1----1----1----1----|-3----3----3----3----|-3----3----3----3----|


  Guitar 2 lead
D|--------------------|--------------------|-----------------------|
A|--------------------|--------------------|-----------------------|
F|---7/9999-7/5-------|---7/9999-7/5-------|---9/10-10-10-10-------|
C|--------------------|--------------------|-----------------10/9--|
G|--------------------|--------------------|-----------------------|
D|--------------------|--------------------|-----------------------|


D|-----------------------------------|---------------------------------|-------------------------------------|
A|-----------------------------------|---------------------------------|-------------------------------------|
F|-----------------------------------|---------------------------------|-------------------------------------|
C|-----------------------------------|-----------------10------9-------|-------------------------------------|
G|-7-H-8-P-7-------------------------|-----7---------------------------|-7-H-8-P-7---------------7-H-8-P-7---|
D|-----------0---0---0---0---0---0---|-0-------0---0-------0-------0---|------------0--0--0--0---------------|


D|---------------------------------|-----------------------------------|---------------------------------|
A|---------------------------------|-----------------------------------|---------------------------------|
F|---------------------------------|-----------------------------------|---------------------------------|
C|---------------------------------|-----------------------------------|-----------------10------9-------|
G|-----10--8---7---8---7-------7---|-7-H-8-P-7-------------------------|-----7---------------------------|
D|-0-----------------------10------|-----------0---0---0---0---0---0---|-0-------0---0-------0-------0---|


D|-------------------------------------|---------------------------------|-----------------------------------|
A|-------------------------------------|---------------------------------|-----------------------------------|
F|-------------------------------------|---------------------------------|-----------------------------------|
C|-------------------------------------|---------------------------------|-----------------------------------|
G|-7-H-8-P-7---------------7-H-8-P-7---|-----5---3---2---3---2-------2---|-----------------------------------|
D|-----------0--0--0--0----------------|-0-----------------------5-------|-0--0--0---0---0---0---0---0--0--0-|


D|-------------------------------------|-------------------------------------|-------------------------------|
A|-------------------------------------|-------------------------------------|-------------------------------|
F|-------------------------------------|-------------------------------------|-------------------------------|
C|-------------------------------------|-------------------------------------|-------------------------------|
G|-------------------------------------|-------------------------------------|-------------------3---3-------|
D|-0--0--0---0---0---0---0---0--0--0---|-0--0--0---0---0---0---0---0--0--0---|-0--0--0---0---0---1---1-------|


D|---------------------|-----------------|---------------------|---------------------|
A|---------------------|-----------------|---------------------|---------------------|
F|---------------------|-----------------|---------------------|---------------------|
C|----------------10---|-----------9-----|-8-------------------|---------------------|
G|-2---------7---------|------7----------|-----------10---9----|-7-------------------|
D|-0-------------------|-----------------|---------------------|------8--------------|


D|---------------------|---------------------|---------------------|---------------------|
A|---------------------|---------------------|---------------------|---------------------|
F|---------------------|---------------------|---------------------|---------------------|
C|----------------10---|------9--------------|-8-------------------|------8----9---------|
G|-2---------7---------|-7-------------------|-----------10---9----|---------------------|
D|-0-------------------|---------------------|---------------------|---------------------|


D|---------------------|---------------------|---------------------|---------------------|
A|---------------------|---------------------|---------------------|---------------------|
F|---------------------|---------------------|---------------------|---------------------|
C|----------------10---|------9--------------|-8-------------------|---------------------|
G|-2---------7---------|-7-------------------|-----------10---9----|-7-------------------|
D|-0-------------------|---------------------|---------------------|------8--------------|


D|---------------------|---------------------|---------------------|---------------------|
A|---------------------|---------------------|---------------------|---------------------|
F|---------------------|---------------------|---------------------|---------------------|
C|----------------10---|------9--------------|-8-------------------|------8----9---------|
G|-2---------7---------|-7-------------------|-----------10---9----|---------------------|
D|-0-------------------|---------------------|---------------------|---------------------|


D|---------------------|
A|---------------------|
F|---------------------|
C|---------------------|
G|-2-------------------|
D|-0-------------------|
END


Unleash the breath that damned the wicked soul make the sacrifice for good
An omen passed the flame through the night benefit the figures face
Without thorns
Gaze upon thy gate a spirit finds a light
Embrace it with it's burning tears howling, crawling, falling, inside

Beyond and bound the spirit rise and disappeared into the light
Covered by a shadow face vengeance for the traitors are thine

See a fallen angel raging fire glow
Take the tale let wisdom fill the beginning of the end for us all

A higher form that makes us feel cold they said dying alone is our fault
Forbidden and freeze the things that we need
They said judgement day is upon

Unleash the breath that damned the wicked soul make the sacrifice for good
An omen passed the flame through the night benefit the figures face
Without thorns
Gaze upon thy gate a spirit finds a light
Embrace it with it's burning tears howling, crawling, falling, inside

A higher form that makes us feel cold they said dying alone is our fault
Forbidden and freeze the things that we need
They said judgement day is upon


+--------------------------------------------------------------------------+
| This file is the author's own work and represents their interpretation   |
| of the song. You may only use this file for private study, scholarship,  |
| or research.                                                             |
+--------------------------------------------------------------------------+

Ultimate-Guitar.Com © 2016         

    
    



            
            
Suggest correction
Creating personal tab
Creating personal tab
You can edit any tab online and save it as your Personal.

You can edit, replace or remove any tab part or add personal notes – all changes will be seen only by you.

Personal tabs can be accessed anytime from any device, even offline.
Learn more »
Give kudos to tab author, rate the tab!
1 2 3 4 5
comments
print report bad tab
guest
You may want to rate the tab now too:
select rating
Wanna post a correction for this tab? Suggest correction