Oops, an error
Loading. Please wait.

Brains chords

version 1
version 1

Whole song

7,181 views 45 this week
3 commentsread comments
1 2 3 4 5
x 4
add to favorites
×
Save as Personal and add changes to this tab that will be seen only by you. Learn more ›
×
You can save this tab as Personal to edit and correct it or add notes. All changes will be seen only by you. Learn more »
launch autoscroll
font size
0
reset
transpose
0
reset
simplify chords
display chords
guitar tuner
edit
Autoscroll
slow
fast
+/-
esc
set tempo
stop
Author
Difficulty
Strumming
There is no strumming pattern for this song yet. and get +5 IQ
Intro:

    e|10--9---10-9-10-|----------------|----------------|
    b|----------------|-10---11-10-11--|----------------|
    g|----------------|----------------|-12-------------|
    D|----------------|----------------|----12----------|   x2
    A|----------------|----------------|----------------|
    E|----------------|----------------|----------------|

Dm
Well hello there little boy.Now don't be shy.
A7
Step right up, I'm a reasonable guy.
Dm
Don't be frightened by the look in my eye.
Gm                                    A7
I'm just your average evil meteor from outta the sky.

Repeat intro

Dm
Well, I'm just shy and scared in this place
A7
I'm just a fish outta water from outer space
Dm
You can see that the trip has left me tired and drained
Gm                       A7
So why don't you be a pal...And bring me some brains

Dm
Go down to your neighbor's place
A7
See the dull expression on his face
Dm
You'd be doing him a favor if you brought him to me
Gm                               A7
He aint using his brain he's just watching TV!
Dm
Go down to Mr. McGee's
A7
He hasn't had a thought since '43.
Dm
His brain is the portrait of atrophy.
Gm                       A7
He ain't using it, why not give it to me?

Chorus:

Dm
BRAINS, BRAINS, I won't lie,
A7
I'll eat their brains 'til they're zombified.
Dm
Sure they might think it's deranged
Gm
But they won't give it a thought
A7
After I've eaten they're brain.
Dm
BRAINS, BRAINS, It's okay.
A7
It's not a matter if it isn't gray,
Dm
And if at first they thinks it's strange,
Gm
They won't think twice
A7
If they don't have a brain!

repeat pattern through the whole song with the intro between each 1 progression in the verse.

            
            
Suggest correction
Creating personal tab
Creating personal tab
You can edit any tab online and save it as your Personal.

You can edit, replace or remove any tab part or add personal notes – all changes will be seen only by you.

Personal tabs can be accessed anytime from any device, even offline.
Learn more »
comments
print report bad tab
3 comments total.
0 reply
Marfoof 4,252 Oct 04, 2016 09:59 PM

I love this tab, wish it included all verses though

0 reply
nickwelch78 10 May 19, 2017 09:13 PM

should be tuned down D standard

0 reply
szeby91 10 6 days ago

e|---------------------------------------------------|
b|-----~14--13--14-13-14-----10----9-----------------|
g|--~6-------------------13----11---9----------------|
D|---------------------------------------------------| x2
A|---------------------------------------------------|
E|---------------------------------------------------|

guest
You may want to rate the tab now too:
select rating
Wanna post a correction for this tab? Suggest correction