Oops, an error
Loading. Please wait.

Propuesta bass

24 views 1 this week
no commentswrite comment
1 2 3 4 5
3 more votes to show rating
add to favorites
×
Save as Personal and add changes to this tab that will be seen only by you. Learn more ›
×
You can save this tab as Personal to edit and correct it or add notes. All changes will be seen only by you. Learn more »
launch autoscroll
font size
0
reset
guitar tuner
edit
Autoscroll
slow
fast
+/-
esc
set tempo
stop
buenas banda pues esta es la rola espero que les sirva

intro
E----6--5--1-3-
A-5------------
D--------------
G--------------

este baje practicamente es la base dela cancion
(BAJO 1)
E--------66666666--55555555--1111-3333
A55555555-----------------------------
D-------------------------------------
G-------------------------------------
BAJO2
E--------666666--555555--1111-3333
A555555--------68------57---------
D------57-------------------------
G---------------------------------

se repite el bajo 1 x4
estrofa

E--------66666666--55555555--1111-3333
A55555555-----------------------------  X3
D-------------------------------------
G-------------------------------------

EL CORO VA ACOMPAÑADO CON EL BAJEO 2
 DESPUES VA EL BAJEO 2 (X2)
ESTROFA X2

INTERMEDIO
E---6--5--1-3---  ESTO VA ALGO PAUSADO
A-5----------5--
D---------------
G---------------

E-----------------
A5------5----5-5-5  LOS ULTIMOS TRES VAN CON LOS REMATES
D--5-7-5----------
G-----------------
pinches gringos de mierda

aqui entra otraves el bajo 2 una vez
despues esto

E----------66---66---55---55---11---11---33---33----
A55---55-----88---88---77---77---33---33----55---55-
D--77---77------------------------------------------
G---------------------------------------------------

OTRAVEZ EL BAJO 2

ESTROFA

EL CORO X2

Y TERMINAS CON BAJO (2)

Y ESTA ESCALA
E-------------
A5-----5--7-5-
D-7---7-------
G--5-7--------

SOLO HAY QUE ESCUCHAR LA ROLA PARA QUE SE PUEDAN ACOMODAR

ESO FUETODO BANDA ESPERO QUE LA CALIFIQEN BIEN

            
            
Suggest correction
Creating personal tab
Creating personal tab
You can edit any tab online and save it as your Personal.

You can edit, replace or remove any tab part or add personal notes – all changes will be seen only by you.

Personal tabs can be accessed anytime from any device, even offline.
Learn more »
Give kudos to tab author, rate the tab!
1 2 3 4 5
comments
print report bad tab
guest
Wanna post a correction for this tab? Suggest correction