Oops, an error
Loading. Please wait.

Falling Knives bass

34 views 1 this week
no commentswrite comment
1 2 3 4 5
3 more votes to show rating
add to favorites
×
Save as Personal and add changes to this tab that will be seen only by you. Learn more ›
×
You can save this tab as Personal to edit and correct it or add notes. All changes will be seen only by you. Learn more »
launch autoscroll
font size
0
reset
guitar tuner
edit
Autoscroll
slow
fast
+/-
esc
set tempo
stop
About this tab version
There is no current bass tab of this song - it's in the UG IQ contest :). Was this info helpful? Yes No
Tuning - D Standard: DGCA
Tabbed from Youtube: https://www.youtube.com/watch?v=jUdM6uo2Lig

Playing Style: Picked, Staccato 
Personally I play this finger style with more bluesy sliding/hammers; but I've tabbed as-is where I can

[Bass Intro - 0.00]
A|-----7-5-7---7-5-7---7-5-7-5-----------|   
C|-0----------------------------7-5-3----|   
G|---------------------------------------|
D|---------------------------------------| (x2)

[Main Riff - 0.06] (x2)
A|--------------------------------------|     A|---------------------------------------|   
C|--------------------------------------|     C|--------------------3-3--3-------------|   
G|-5----5-3-5---5-3-5---5-3-5-3---------|     G|-5----5-3-5---5-3-----------3-3--3-----|
D|------------------------------5-3-----|(x3) D|---------------------------------------|   

[Verse 1 - 0.33]                              
A|-------------------------------------|      A|---------------------------------------|   
C|-----------------------/7-5-3--------|      C|---------------------------------3h/7--|   
G|-5----5-3-5---5-3-5------------5-3---|      G|-5----5-3-5---5-3-----------3h5--------|   
D|-------------------------------------|(x3)  D|-------------------3-3-5-5-------------|   

A|-------------------------------------|      A|----------------------------------5----|   
C|-----------------------/7-5-3--------|      C|----------------------3--5-5h6-7-------|   
G|-5----5-3-5---5-3-5------------5-3---|      G|-5-------------3--5--------------------|   
D|-------------------------------------|(x3)  D|------1--3--5--------------------------| 

[Pre-Chorus - 0.59] 
A|--------------------------------------|     
C|--------------------------------------|     
G|-5----5-3-5---5-3-5---5-3-5-3---------|     
D|------------------------------5-3-----| (x3) 

A|----------------------|  
C|----------------------|  
G|-5----5----5----5-----|   
D|----------------------| 

[Chorus - 1.17]
A|-------------------|-----------------------------|  
C|-------------------|-----------------------------|  
G|----------3-3------|-3/5-5--3/5-5--3/5-5--3/5-5--|
D|-1-1-1-1------3-3--|-----------------------------| (x3)

A|---------------------------------|  
C|-------------------------DRUM----|  
G|----------3~------5~-----FILL----|
D|-1~------------------------------| (x3)

[Main Riff - 1.42]
A|--------------------------------------|     A|---------------------------------------|   
C|--------------------------------------|     C|--------------------3-3--3-------------|   
G|-5----5-3-5---5-3-5---5-3-5-3---------|     G|-5----5-3-5---5-3-----------3-3--3-----|
D|------------------------------5-3-----|(x1) D|---------------------------------------|

[Verse 2 - 1.48]                              
A|-------------------------------------|      A|---------------------------------------|   
C|-----------------------/7-5-3--------|      C|-----------------------------3-3/5-5h7-|   
G|-5----5-3-5---5-3-5------------5-3---|      G|-5----5-3-5--5------------/5-----------|   
D|-------------------------------------|(x3)  D|---------------1-1/3-3h-5--------------|   
1
A|-------------------------------------|      A|---------------------------------5-7-7-|   
C|-----------------------/7-5-3--------|      C|---------------------3--5-5h6-7--------|   
G|-5----5-3-5---5-3-5------------5-3---|      G|-5-------------3--5--------------------|   
D|-------------------------------------|(x3)  D|------1--3--5--------------------------| 

[Pre-Chorus - 2.15] 
A|--------------------------------------|     
C|--------------------------------------|     
G|-5----5-3-5---5-3-5---5-3-5-3---------|     
D|------------------------------5-3-----| (x3) 

A|----------------------|  
C|----------------------|  
G|-5----5----5----5-----|   
D|----------------------| 

[Chorus - 2.32]
A|-------------------|-----------------------------|  
C|-------------------|-----------------------------|  
G|----------3-3------|-3/5-5--3/5-5--3/5-5--3/5-5--|
D|-1-1-1-1------3-3--|-----------------------------| (x3)

A|---------------------------------|  
C|---------------------------------|  
G|----------3~------5~-------------|
D|-1~------------------------------| (x3)

[Guitar Solo - 3.06] (x3)
A|--------------------|
C|--------------------|
G|-5-3----------3-/5--| 
D|------3-1-3---------| (Fast Dm Pentatonic Lick)
 
A|------------------------------10-7-----7-------------------------|
C|--------3---3--5-3-5--7-5-7--------10----10-7--10-7-5---7-5------| (NB There are a couple of variations 
G|-5-3-5-----5-------------------------------------------------8---|  They're fast Dm Pentatonic Scale runs
D|-----------------------------------------------------------------|  I can't get them exact!)

[Guitar Harmonies- 3.28] 
A|------------------------------|---------------------------------|
C|-----------------2-2---2-2-2--|--3-3---3-3-3---5-5--5-5-5-------|
G|-5-5---5-5-5------------------|---------------------------------|
D|------------------------------|---------------------------------|

[Pre-Chorus - 3.41]
A|----------------------|  
C|-REST-----------------|  
G|----------------------|   
D|----------------------| 

A|----------------------|  
C|----------------------|  
G|-5----5----5----5-----|   
D|----------------------| 

[Chorus - 3.54]
A|-------------------|-----------------------------|  
C|-------------------|-----------------------------|  
G|----------3-3------|-3/5-5--3/5-5--3/5-5--3/5-5--|
D|-1-1-1-1------3-3--|-----------------------------| (x3)

[Outro/Main Riff - 4.17] 
A|--------------------------------------|     A|------------------------------------|--------|   
C|--------------------------------------|     C|--------------------333--3----------|--------|   
G|-5----5-3-5---5-3-5---5-3-5-3---------|     G|-5----5-3-5---5-3-----------333--3--|--5~~~~-|
D|------------------------------5-3-----|(x3) D|------------------------------------|--------| 


************************************

| /  Slide up
| h  Hammer-on 

************************************

            
            
Suggest correction
Creating personal tab
Creating personal tab
You can edit any tab online and save it as your Personal.

You can edit, replace or remove any tab part or add personal notes – all changes will be seen only by you.

Personal tabs can be accessed anytime from any device, even offline.
Learn more »
Give kudos to tab author, rate the tab!
1 2 3 4 5
comments
print report bad tab
guest
You may want to rate the tab now too:
select rating
Wanna post a correction for this tab? Suggest correction