Oops, an error
Loading. Please wait.

Yo Quiero Estar Seguro De Vivir tab

by Vox Dei
34 views 1 this week
no commentswrite comment
1 2 3 4 5
3 more votes to show rating
add to favorites
×
Save as Personal and add changes to this tab that will be seen only by you. Learn more ›
×
You can save this tab as Personal to edit and correct it or add notes. All changes will be seen only by you. Learn more »
launch autoscroll
font size
0
reset
how to read this tab
guitar tuner
edit
Autoscroll
slow
fast
+/-
esc
set tempo
stop
Pongo parte de la letra para ubicarse a la hora de tocar los
punteos...

 Formando mi ser...
e------------------------------------------------------------
B------------------------------------------------------------
G---pb(16)r(14)-12h14-12------------------------12b----------
D------------------------14-14--12----12h14-14------14p12-14-
A----------------------------------14------------------------
E------------------------------------------------------------

...muy seguro de vivir...
e---------------------
B---------------------
G--2br(2)p0-----------
D-----------2p0h2-----
A---------------------
E---------------------

el pronto llegara...    ...en que pueda hablar...
  E----------------        ------------------
  B----------------        ------------------
  G--11-12-11------        --11-12-11--------
  D-----------14---        -----------12-----
  A----------------        ------------------
  E----------------        ------------------

ya nunca mas...
e------------------------------
B--3b5-------------------------
G-------4p2p0----------(2br2)--
D--------------2p0-------------
A------------------------------
E------------------------------

quiero estar seguro de vivir...
e-0---------------------
B-----------------------
G---2br2p0---0----------
D----------2----2p0-2-2-
A-----------------------
E-----------------------

quiero estar seguro de vivir...
e-----------------------------------------------------
B-----------------------------------------------------
G-pb(16)r14-(16)r14-(16)r14-(16)r14--12----12b--------
D---------------------------------------14------14-14-
A-----------------------------------------------------
E-----------------------------------------------------

Yo quiero estar seguro de vivir...
e-----------------------12-------------12-----------------------
B-15b(17)-15-12--15b(17)---15-12---------15-12--------12--------
G-------------------------------14b(16)-------14b(16)---14-12---
D------------------------------------------------------------14-
A---------------------------------------------------------------
E---------------------------------------------------------------


Estos son los licks del tema, cualquier duda, comentario, y/o
correccion seran bienvenidos... chau!

Guille

pd: por si alguien no conoce algunos simbolitos los aclaro
en criollo...

pb(x): Se pulsa la nota con la cuerda ya estirada
      ("suena la que esta aca")

r:    La cuerda estirada regresa a su posicion original dejando
      sonar la nota

br:   Estirar y volver a acomodar la cuerda en su lugar

b(x): Estirada ("aca va la nota que a a sonar")


...je, bien en criollo, cualquier cosa no duden en escribir ;)...

            
            
Suggest correction
Creating personal tab
Creating personal tab
You can edit any tab online and save it as your Personal.

You can edit, replace or remove any tab part or add personal notes – all changes will be seen only by you.

Personal tabs can be accessed anytime from any device, even offline.
Learn more »
Give kudos to tab author, rate the tab!
1 2 3 4 5
comments
print report bad tab
guest
Wanna post a correction for this tab? Suggest correction