Oops, an error
Loading. Please wait.

Start Of Something Tab

3,883 views 1 this week
no commentswrite comment
1 2 3 4 5
x 3
add to favorites
launch autoscroll
font size
0
reset
how to read this tab
guitar tuner
Autoscroll
slow
fast
+/-
esc
set tempo
stop
Help us to improve Ultimate-Guitar.com Take our survey!
×
Author
Difficulty
intermediate
This is how I play the solo for this brilliant tune.

e|--------------------------------------------------------------------------|
B|--------------------------------------------------------------------------|
G|----------555----333----111--000-----------------8-----5h6---5---3---1--0-|
D|-------6---------------------------1-1h3------8---------------------------|
A|-----6-------------------------------------6------------------------------|
E|--4-----------------------------------------------------------------------|


e|--------------------------------------------------------------------------|
B|--------------------------------------------------------------------------|
G|---------1slide/6x7---------13-------------------13-----------------------|
D|--1h3---------------------------13---10---10h13------13---10-----6/8------|
A|--------------------------------------------------------------------------|
E|--------------------------------------------------------------------------|

e|--------------------------------------------------------------------------|
B|---------------6--6--6--6--6-------(fastpicking)999--888---666---444------|
G|-------5-5h6---6--6--6--6--6----------------------------------------------|
D|--6h8---------------------------------------------------------------------|
A|--------------------------------------------------------------------------|
E|--------------------------------------------------------------------------|





Tabbed by E-man. Comment on it and tell me what you think. Thanks
Suggest correction
Give kudos to tab author, rate the tab!
1 2 3 4 5
comments
print report bad tab
guest
You may want to rate the tab now too:
select rating
Wanna post a correction for this tab? Suggest correction