Oops, an error
Loading. Please wait.

Muchacho De Campo tab

421 views 1 this week
no commentswrite comment
1 2 3 4 5
3 more votes to show rating
add to favorites
×
Save as Personal and add changes to this tab that will be seen only by you. Learn more ›
×
You can save this tab as Personal to edit and correct it or add notes. All changes will be seen only by you. Learn more »
launch autoscroll
font size
0
reset
how to read this tab
guitar tuner
edit
Autoscroll
slow
fast
+/-
esc
set tempo
stop
Acordes:
A: x    F#m: 2   D: x  E: x     Se recomienda tocar los
   5         2      x     x     acordes como se indican acá:
   6         2      7     9     [---------------------------
   7         4      4     6
   x         4      5     7
   x         x      x     x


e[--11--11--8-------8-6-8-6-8-6-8-6--]
B[-----------11--9-----------------9---]


B[--9-9--11-11--13-13--14-13-14-13-14-13-14-13--11-------]
G[------------------------------------------------13-12--]


e[--11--11--8-------8-6-8-6-8-6-8-6--]
B[-----------11--9-----------------9---]


B[--9-9--11-11--13-13--14-14-14-14--13-11-13-11---9--]


A                           F#m
Perdóname yo no se decir palabras
                    D
con finura como tu hablas
                     E
no fui a la universidad

      A                        F#m
Pues mírame soy un muchacho de campo
                    D
solo se que te amo tanto
        E          A
esa es la pura verdad

A                              F#m
No tengo pa comprarme un traje nuevo
                    D
yo me visto de ranchero
                      E
por que no soy un catrin

    A                         F#m
yo como con frijoles salsa y huevo
                      D
y las flores que te llevo
        E
las corte de mi jardín

 A
pero son mías las estrellas
F#m
todas esas cosas bellas
        D          E
que mi dios me regalo

        A                      F#m
Como el aire el azul del cielo inmenso
                       D
de las flores y el incienso
      E
y la vida que me dio


 A    F#m      D    E
aaah, aaaaaah, aaaaaah,

A        F#m      D   E
aaaaaah, aaaaaah, aaaaah


aqui de nuevo va el intro:

e[--11--11--8-------8-6-8-6-8-6-8-6--]
B[-----------11--9-----------------9---]


B[--9-9--11-11--13-13--14-13-14-13-14-13-14-13--11-------]
G[------------------------------------------------13-12--]


e[--11--11--8-------8-6-8-6-8-6-8-6--]
B[-----------11--9-----------------9---]


B[--9-9--11-11--13-13--14-14-14-14--13-11-13-11---9--]


A                              F#m
si quieres te comparto mis riquezas
                        D
son las mas grandes bellezas
                     E
por que son al natural

    A                      F#m
El mar las estrellas la maleza
                      D
mi alegría y mi tristeza
      E          A
y nada es artificial

   A                          F#m
ya sabes que yo soy ranchero bruto
                    D
de mis males no te culpo
                   E
pero que le voy hacer

    A                      F#m
entiende que lo único que ocupo
                        D
de tu huerto el dulce fruto
         E
y que feliz me vas hacer

A
Ni chóferes ni equipaje
F#m
en mi rancho bajo el guaje
   D            E
no vas a necesitar

         A                     F#m
va a gustarte gozaremos del paisaje
                        D
te llevare a un lindo viaje
      E
y lo vas a disfrutar

A    F#m      D    E
aaah, aaaaaah, aaaaaah,

A        F#m      D   E
aaaaaah, aaaaaah, aaaaah


aquí de nuevo va el intro:
e[--11--11--8-------8-6-8-6-8-6-8-6--]
B[-----------11--9-----------------9---]


B[--9-9--11-11--13-13--14-13-14-13-14-13-14-13--11-------]
G[------------------------------------------------13-12--]


e[--11--11--8-------8-6-8-6-8-6-8-6--]
B[-----------11--9-----------------9---]


B[--9-9--11-11--13-13--14-14-14-14--13-11-13-11---9--]
Suggest correction
Creating personal tab
Creating personal tab
You can edit any tab online and save it as your Personal.

You can edit, replace or remove any tab part or add personal notes – all changes will be seen only by you.

Personal tabs can be accessed anytime from any device, even offline.
Learn more »
Give kudos to tab author, rate the tab!
1 2 3 4 5
comments
print report bad tab
guest
Wanna post a correction for this tab? Suggest correction