Oops, an error
Loading. Please wait.

El Farolito chords

version 1
version 1

Whole song

260 views 1 this week
no commentswrite comment
1 2 3 4 5
2 more votes to show rating
add to favorites
×
Save as Personal and add changes to this tab that will be seen only by you. Learn more ›
×
You can save this tab as Personal to edit and correct it or add notes. All changes will be seen only by you. Learn more »
launch autoscroll
font size
0
reset
transpose
0
reset
simplify chords
display chords
guitar tuner
edit
Autoscroll
slow
fast
+/-
esc
set tempo
stop
Strumming
There is no strumming pattern for this song yet. and get +5 IQ
Introduccion

|---------3----------5-0-----1----|
|-------1----3--2-2--------3------|
|-0---0------0--2-2------2--------|
|---------------2-2---------------|
|---3-----------------------------|
|---------------------------------|

|-------1-1--0--------------5-5---|
|-----3---3----3-1--------3-------|
|---2-----2-------------2---------|
|-0-------------------0-----------|
|---------------------------------|
|-------------------2-------------|

|----------4-4-------0------------|
|-------3----------0--------3-----|
|-----2----------0--------0-------|
|---0-------------------0---------|
|---------------------------------|
|-1------------3------3-----------|

Verso
       C                          C/B
Aun recuerdo el farolito de la esquina
      Am                    Am/G
Tiernamente alumbraba mis mentiras
      F                    G
No tenia dieciseis como decia
        C
Era un niño en edad de golosinas
      C                            C/B
Me besaste ante la luna y mis dos primas
     Am                        Am/G
Sonrojando hasta la ropa  que tenia
        F                        G
Labios tiernos que mataban mi vigilia
      C
Se robaban los juguetes de esos dias

Pre-coro
       Am                         Am/G
Los encuentros de fútbol con mis amigos
        D
Los cambié por besos y unos cigarrillos
            F                           G
Yo fuí un Dios que hizo verano en tu mejilla
         C
Un astronauta entre tus pechos de afrodita

(El coro va exactamente a la introduccion excepto
 en la parte de Tus recuerdos son estrellas que
 no paran de llover)

Y van, van por dentro
       F
Tus recuerdos son estrellas que
    G          C
no paran de llover

(el 2do verso va igual que el primero y despues
 se repite 2 veces el precoro)

Coro (Bis 2)

(cuando esta terminando el segundo coro de esta
 repeticion, osea en 'que no paran de llover',
 cae en Am)

Am Am/G          F                  G           C
         Tus estrellas nunca nunca paran de llover

            
            
Suggest correction
Creating personal tab
Creating personal tab
You can edit any tab online and save it as your Personal.

You can edit, replace or remove any tab part or add personal notes – all changes will be seen only by you.

Personal tabs can be accessed anytime from any device, even offline.
Learn more »
Give kudos to tab author, rate the tab!
1 2 3 4 5
comments
print report bad tab
guest
Wanna post a correction for this tab? Suggest correction