Oops, an error
Loading. Please wait.

El Farolito chords

version 2
version 2

Whole song

90 views 1 this week
no commentswrite comment
1 2 3 4 5
3 more votes to show rating
add to favorites
×
Save as Personal and add changes to this tab that will be seen only by you. Learn more ›
×
You can save this tab as Personal to edit and correct it or add notes. All changes will be seen only by you. Learn more »
launch autoscroll
font size
0
reset
transpose
0
reset
simplify chords
display chords
guitar tuner
edit
Autoscroll
slow
fast
+/-
esc
set tempo
stop
Strumming
There is no strumming pattern for this song yet. and get +5 IQ
intro

e|----3------5-0-1-|-1-0-------5-5--|---5-5---4-4----|
B|-1-----3-2-------|-----3-1-3------|-3-----2--------|
G|-------0-2-------|----------------|----------------|
D|---------2-------|----------------|----------------|
A|-----------------|----------------|----------------|
E|-----------------|----------------|----------------|


       C                          C/B
Aun recuerdo el farolito de la esquina
      Am                    Am7
Tiernamente alumbraba mis mentiras
      F                    G
No tenia dieciseis como decia
        C
Era un niño en edad de golosinas
      C                            C/B
Me besaste ante la luna y mis dos primas
     Am                        Am7
Sonrojando hasta la ropa  que tenia
        F                        G
Labios tiernos que mataban mi vigilia
      C
Se robaban los juguetes de esos dias


       Am                         Am7
Los encuentros de fútbol con mis amigos
        D
Los cambié por besos y unos cigarrillos
            F                           G
Yo fuí un Dios que hizo verano en tu mejilla
         C
Un astronauta entre tus pechos de afrodita

e|----3------5-0-1-|-1--------------|
B|-1-----3-2-------|----3-----------|
G|-------0-2-------|----------------|
D|---------2-------|----------------|
A|-----------------|----------------|
E|-----------------|----------------|

Y van, van por dentro  uhhhhhh... uhhhhh...


    F
Tus recuerdos son estrellas que
    G          C
no paran de llover

e|----3------5-0-1-|-1-0-------5-5--|---5-5---4-4----|
B|-1-----3-2-------|-----3-1-3------|-3-----2--------|
G|-------0-2-------|----------------|----------------|
D|---------2-------|----------------|----------------|
A|-----------------|----------------|----------------|
E|-----------------|----------------|----------------|

               A A LA ra LA laa laa....

       C                          C/B
Fuimos tarde a mirar la luz del dia
      Am                    Am7
Se nos iba el tiempo en tanta tonteria
      F                    G
Yo pintaba nuevas pecas a tu vientre
        C
Tu inventabas una forma de quererme
      C                            C/B
Conjugaba con Neruda y sus palabras
     Am                        Am7
un hechizo pa' que nunca te marcharas
        F                        G
Y lo hiciste sin aviso esa mañana
      C
En que el mundo fue el corral de mi desgracia


       Am                         Am7
Y me juraste regresar algun verano
        D
Al farolito juro me quede pegado
            F                           G
Nunca un hombre te extraño de esta manera
         C
Nunca un niño te adoro de esta manera
       C                          C/B
Ay niña linda me dejaste en los bolsillos
      Am                    Am7
Triste aroma de besos y cigarrillos
      F                    G
Yo fuí un Dios que hizo verano en tu mejilla
        C
Un astronauta entre tus pechos de afrodita

e|----3-3---------5-0-1-|-1--------------|
B|-1------3-3-2-2-------|----3-----------|
G|--------0-0-2-2-------|----------------|
D|------------2-2-------|----------------|
A|----------------------|----------------|
E|----------------------|----------------|

Y van, van por dentro  uhhhhhh... uhhhhh...


    F
Tus recuerdos son estrellas que
    G          C
no paran de llover


e|----3-3---------5-0-1-|-1--------------|
B|-1------3-3-2-2-------|----3-----------|
G|--------0-0-2-2-------|----------------|
D|------------2-2-------|----------------|
A|----------------------|----------------|
E|----------------------|----------------|

Y van, van por dentro  uhhhhhh... uhhhhh...


    F
Tus recuerdos son estrellas que
    G          C
no paran de llover

tus estrellas nunca nunca paran de llover

e|----3------5-0-1-|-1-0-------5-5--|---5-5---4-4----|
B|-1-----3-2-------|-----3-1-3------|-3-----2--------|
G|-------0-2-------|----------------|----------------|
D|---------2-------|----------------|----------------|
A|-----------------|----------------|----------------|
E|-----------------|----------------|----------------|

            
            
Suggest correction
Creating personal tab
Creating personal tab
You can edit any tab online and save it as your Personal.

You can edit, replace or remove any tab part or add personal notes – all changes will be seen only by you.

Personal tabs can be accessed anytime from any device, even offline.
Learn more »
Give kudos to tab author, rate the tab!
1 2 3 4 5
comments
print report bad tab
guest
Wanna post a correction for this tab? Suggest correction