Oops, an error
Loading. Please wait.

Te Quiero De Colores chords

version 1
version 1

Whole song

32 views 1 this week
no commentswrite comment
1 2 3 4 5
3 more votes to show rating
add to favorites
×
Save as Personal and add changes to this tab that will be seen only by you. Learn more ›
×
You can save this tab as Personal to edit and correct it or add notes. All changes will be seen only by you. Learn more »
launch autoscroll
font size
0
reset
transpose
0
reset
display chords
guitar tuner
edit
Autoscroll
slow
fast
+/-
esc
set tempo
stop
Strumming
There is no strumming pattern for this song yet. and get +5 IQ
Notas; EADGBe
  F    133211
  C    x35553
  Bb   x13331
  Dm   x57765 o x00231
  A    x02220
  Am   x02210
  Am*  577555

Intro: F Bb C 

/=deslizar
e|-6/8--6-5-3-1-3-1-3--3/5-3-1-0-------------------
B|-5/7--5-5-3-1-3-1-3--3/5-3-1-0-1-3---------------
G|-------------------------------0-2---------------
D|-------------------------------------------------
A|-------------------------------------------------
E|-------------------------------------------------

  F                      Dm
Te quiero, te quiero de colores 
           C  Bb    (un solo movimiento)
No existe mas amores 
               Am
que tengan tu color. 
  Bb                     Am
Te quiero, con el azul del cielo 
                 Bb              
Con el rojo de los celos 
                 A
Y el morado del dolor 
   F                         Am
Te quiero con el verde de un disgusto
                          Bb
Con el blanco de un buen susto 
                 Am
Y los grises del amor 
      Bb                     Am
Y te amo con el negro de la muerte 
                    Bb
Y el amarillo de la suerte 
               F
de tenerte hoy aquí 

 
   F                          Dm
Te quiero, yo te quiero de colores 
           C  Bb    (un solo movimiento)
No existen mas amores
              Am
Que tengan tu color 
      Bb C               Am
te adoro, Con todos los matices
                    Bb
Que dan todos los grises 
                  A
sobre el verde del mar

  Dm                             Am
Yo te doy todo el naranja de los niños 
              Bb
Un rosado de cariño 
                    Am
Y el marrón de mi jardín
       Bb                      Am
Y te amo con el negro de la muerte 
                   Bb
El amarillo de la suerte 
                F
De tenerte hoy aquí
.....x3......
e|-0-1-3--0-----0--1-3-1--------------------------
B|-1-1-3--1-----1--1-3-1--------------------------
G|-2------2-----2--2---2--------------------------
D|---------------------3--------------------------
A|-------------------------------------------------
E|-------------------------------------------------
 
F Am F G Am*

 Am*
Te quiero de colores
                   Bb                 Am
No existen mas amores que tengan tu color

.....x3...... la ra la la ra la la
e|-0-1-3--0-----0--1-3-1--------------------------
B|-1-1-3--1-----1--1-3-1--------------------------
G|-2------2-----2--2---2--------------------------
D|---------------------3--------------------------
A|-------------------------------------------------
E|-------------------------------------------------


Uuhhh
.....x3......
e|-2------
B|-2------
G|-2------
D|-0------
A|-0------
E|-x------

            
            
Suggest correction
Creating personal tab
Creating personal tab
You can edit any tab online and save it as your Personal.

You can edit, replace or remove any tab part or add personal notes – all changes will be seen only by you.

Personal tabs can be accessed anytime from any device, even offline.
Learn more »
Give kudos to tab author, rate the tab!
1 2 3 4 5
comments
print report bad tab
guest
Wanna post a correction for this tab? Suggest correction