Oops, an error
Loading. Please wait.

Conscious Club bass

version 1
version 1

Whole song

  • A full, accurate transcription of the bass part.

Interactive

1,804 views 84 this week
no commentswrite comment
1 2 3 4 5
x 4
add to favorites
×
Save as Personal and add changes to this tab that will be seen only by you. Learn more ›
×
You can save this tab as Personal to edit and correct it or add notes. All changes will be seen only by you. Learn more »
launch autoscroll
font size
0
reset
guitar tuner
edit
Autoscroll
slow
fast
+/-
esc
set tempo
stop
Author
Difficulty
About this tab version
A full, accurate transcription of the bass part. Was this info helpful? Yes No
********************************************************************

                    CONSCIOUS CLUB - VULFPECK

********************************************************************

[Intro] 
  s s s s s s s s s s s s e   e    s s s s s s s s s s s s s s s s 
G|--------------------------------|--------------------------------|
D|------------x-2-3-3-2-----------|------------3-3-x-x---------3-3-|
A|------------------------3---1---|--------------------------------|  (x7)
E|3-------------------------------|0-----1-x-x---------1-1-x-x-----|

  s s s s s s s s s s s s e  e     s s s s s s s s q       q 
G|--------------------------------|--------------------------------|
D|------------x-2-3-3-2-----------|2-----3-----2-----------5~------|
A|------------------------3---1---|----------------5---------------|
E|3-------------------------------|--------------------------------|


[Verse #1] 

  s s s s s s s s s s s s s s s s  w
G|--------------------------------|--------------------------------|
D|--------------------------------|--------------------------------|
A|--------------------------------|--------------------------------|  (x3)
E|0-----1-----------------3-----3-|--------------------------------|

  s s s s s s s s s s s s s s s s  s s s s s s s s q       q
G|--------------------------------|--------------------------------|
D|--------------------------------|------------0-1-2-------2-------|
A|--------------------------------|--------------------------------|
E|0-----1-----------------3-----3-|--------------------------------|

[Chorus #1] 

  s s s s s s s s s s s s s s s s  s s s s s s s s s s s s s s s s 
G|--------------------------------|--------------------------------|
D|3-----3---3-----2---------------|4-----4---4-----5-------------5-|
A|--------------3---------------3-|--------------5-------------5---|  
E|--------------------------------|--------------------------------|

  s s s s s s s s q       q        w
G|--------------------------------|--------------------------------|
D|3-----3---3-----2-------4-------|5-------------------------------|
A|--------------3-----------------|--------------------------------|  
E|--------------------------------|--------------------------------|

  s s s s s s s s s s s s s s s s  q       q       q       q
G|--------------------------------|--------------------------------|
D|3-----3---3-----2-----------4-5-|6---------------7-------5-------|
A|--------------3-----------------|--------7-----------------------|  
E|--------------------------------|--------------------------------|

  q       q       q       q 
G|--------------------------------|
D|------------------------5-------|
A|8-------7-------5---------------|
E|--------------------------------|

[Verse #2]


  s s s s s s s s s s s s s s s s  s s s s s s s s s s s s s s s s 
G|--------------------------------|--------------------------------|
D|--------------------------------|--------------------------------|
A|--------------------------------|--------------------------------|  (x3)
E|0-----1-----------------3-----3-|--------------------------------|

  s s s s s s s s s s s s s s s s  s s s s s s s s q       q
G|--------------------------------|--------------------------------|
D|--------------------------------|----------x-0-1-2-------2-------|
A|--------------------------------|--------------------------------|
E|0-----1-----------------3-----3-|--------------------------------|

[Chorus #2]

  s s s s s s s s s s s s s s s s  s s s s s s s s s s s s s s s s 
G|--------------------------------|--------------------------------|
D|3-----3---3-----2---------------|4-----4---4-----5-------------5-|
A|--------------3---------------3-|--------------5-------------5---|  
E|--------------------------------|--------------------------------|

  s s s s s s s s q       q        s s s s s s s s s s s s s s s s
G|--------------------------------|--------------------------------|
D|3-----3---3-----2-------4-------|5-----------------------------5-|
A|--------------3-----------------|--------------------------5-7---|  
E|--------------------------------|--------------------------------|

  s s s s s s s s s s s s s s s s  q       q       q       q
G|--------------------------------|--------------------------------|
D|3-----3---3-----2-----------4-5-|6---------------7-------5-------|
A|--------------3-----------5-----|--------7-----------------------|  
E|--------------------------------|--------------------------------|

  q       q       q       q 
G|--------------------------------|
D|------------------------5-------|
A|8-------7-------5---------------|
E|--------------------------------|

[Breakdown]

 s s s s s s s s s s s s e   e     s s s s s s s s s s s s s s s s 
G|--------------------------------|--------------------------------|
D|------------x-2-3-3-2-----------|------------3-3-x-x---------3-3-|
A|-----------------------3---1----|--------------------------------|  (x3)
E|3-------------------------------|0-----1-x-x---------1-1-x-x-----|


 s s s s s s s s s s s s e   e     s s s s s s s s s s s s s s s s 
G|--------------------------------|--------------------------------|
D|------------x-2-3-3-2-----------|------------3-3-x-x-0-2-3-2-0---|
A|------------------------3---1---|------------------------------3-|  
E|3-------------------------------|0-----1-x-x---------------------|

  s s s s s s s s s s s s s s s s  s s s s s s s s s s s s s s s s 
G|--------------------------------|--------------------------------|
D|------5-x-x-x-2-3-3-2-2---------|------------3-3-x-x---------3-3-|
A|------------------------3-3-1-1-|--------------------------------|  
E|3-------------------------------|0-----1-x-x---------1-1-x-x-----|

  s s s s s s s s s s s s e   e    s s s s s s s s s s s s s s s s 
G|--------------------------------|------------5-3-4---------------|
D|------------x-2-3-3-2-----------|------------------5-3-----------|
A|------------------------3---1---|----------------------5-4-3-----|  
E|3-------------------------------|0-----1-x-x-----------------6\0-|

  s s s s s s s s s s s s e   e    s s s s s s s s s s s s s s s s 
G|--------------------------------|--------------------------------|
D|------5-------2-3-3-2-----------|------------3-3-x-x---------3-3-|
A|------------2-----------3---1---|--------------------------------|  
E|3b4r3---------------------------|0-----1-x-x---------1-1-x-x-----|

  s s s s s s s s s s s s e   e    s s s s s s s s s s s s s s s s 
G|--------------------------------|--------------------------------|
D|--------------2-3-3-2-----------|------------3-3-3-2-0---3-3---0-|
A|------------0-----------3---1---|----------------------3-----3---|  
E|3-------------------------------|0-----1-x-x---------------------|

  s s s s s s s s s s s s e   e    s s s s s s s s s s s s s s s s 
G|--------------------------------|--------------------------7-9~--|
D|------5-x-x-0-2-3-3-2-----------|----------x---------5---9-------|
A|------------------------3---1---|------------x-0/5-7-------------|  
E|3-------------------------------|0-----1-------------------------|

  s s s s s s s s s s s s e   e    s s s s s s s s s s s s s s s s 
G|--------------------------------|--------------------------------|
D|------5-------2-3-3-2-----------|----------3-2-0-x-2-0-----------|
A|------------2-----------3---1---|----------------------3-x-0-3-1-|  
E|3-------------------------------|0-----1-x-----------------------|

  s s s s s s s s s s s s e   e    s s s s s s s s s s s s s s s s 
G|--------------------------------|--------------------------------|
D|--------------2-3-3-2-----------|------------3-3-x-x---------3-3-|
A|------------2-----------3---1---|--------------------------------|  
E|3---1---3\----------------------|0-----1-x-----------1-1-x-x-----|

  s s s s s s s s s s s s e   e    s s s s s s s s q       q
G|--------------------------------|--------------------------------|
D|--------------2-3-3-2-----------|2-----3-x-x-0-1-2-------2-------|
A|--------x-x-2-----------3---1---|--------------------------------|  
E|3-------------------------------|--------------------------------|

[Chorus #3]

  s s s s s s s s s s s s s s s s  s s s s s s s s s s s s s s s s 
G|--------------------------------|--------------------------------|
D|3-----3---3-----2---------------|4-----4---4-----5-------------5-|
A|--------------3---------------3-|--------------5-------------5---|  
E|--------------------------------|--------------------------------|

  s s s s s s s s q       q        w
G|--------------------------------|--------------------------------|
D|3-----3---3-----2-------4-------|5-------------------------------|
A|--------------3-----------------|--------------------------------|  
E|--------------------------------|--------------------------------|

  s s s s s s s s s s s s s s s s  q       q       q       q
G|--------------------------------|--------------------------------|
D|3-----3---3-----2-----------4-5-|6---------------7-------5-------|
A|--------------3-----------5-----|--------7-----------------------|  
E|--------------------------------|--------------------------------|

  q       q       q       q         w
G|--------------------------------|--------------------------------|
D|------------------------5-------|(5)-----------------------------|
A|8-------7-------5---------------|--------------------------------|
E|--------------------------------|--------------------------------|


[Bridge]

  w                                q
G|--------------------------------|--------------------------------|
D|6-------------------------------|/18-----------------------------|
A|--------------------------------|--------------------------------|  
E|--------------------------------|--------------------------------|
  s s s s s s s s s s s s s s s s  w
G|--------------------------------|--------------------------------|
D|--------------------------------|--------------------------------|
A|--------------------------------|--------------------------------|  (x2)
E|1-----2-----------------4-----4-|--------------------------------|

  s s s s s s s s s s s s s s s s  s s s s s s s s s s s s s s s s 
G|--------------------------------|------------------------6-------|
D|--------------------------------|------------------6h8-----8p6---|
A|--------------------------------|------------------------------8-|  
E|1----2------------------4-----4-|--------------------------------|

  s s s s s s s s s s s s s s s s  w
G|--------------------------------|--------------------------------|
D|--------------------------------|--------------------------------|
A|--------------------------------|--------------------------------|  (x4)
E|1-----2-----------------4-----4-|--------------------------------|

  s s s s s s s s q       q  
G|--------------------------------|
D|3-----4-----3-----------6-------|
A|----------------6---------------|
E|--------------------------------|





************************************

| s   sixteenth note
| e   eighth note
| q   quarter note
| h   half note
| w   whole note

| x   Dead note
| (n) Ghost note
| h   Hammer-on
| p   Pull-off
| r   Release
| b   Bend
| /   Slide up
| \   Slide down
| ~   Vibrato


************************************

            
            
Suggest correction
Creating personal tab
Creating personal tab
You can edit any tab online and save it as your Personal.

You can edit, replace or remove any tab part or add personal notes – all changes will be seen only by you.

Personal tabs can be accessed anytime from any device, even offline.
Learn more »
comments
print report bad tab
guest
You may want to rate the tab now too:
select rating
Wanna post a correction for this tab? Suggest correction