Oops, an error
Loading. Please wait.

Cory Wong tab

5,746 views 414 this week
2 commentsread comments
1 2 3 4 5
x 10
add to favorites
×
Save as Personal and add changes to this tab that will be seen only by you. Learn more ›
×
You can save this tab as Personal to edit and correct it or add notes. All changes will be seen only by you. Learn more »
launch autoscroll
font size
0
reset
how to read this tab
guitar tuner
edit
Autoscroll
slow
fast
+/-
esc
set tempo
stop
[Intro and Verse]
(This is Jack's part)
e|--13-x---13-13-13-13-----|-----13-13-13-13---------|--13-x---13-13-13-13-----|-----12/13--13---------|
B|--10-x---11-11-11-11-----|-----11-11-11-11---------|--10-x---11-11-11-11-----|-----12/13--13---------|
G|--12-x---12-12-12-12-----|-----12-12-12-12---------|--12-x---12-12-12-12-----|-----13/14--14---------|
D|--13-x---13-13-13-13-----|-----13-13-13-13---------|--13-x---13-13-13-13-----|-----12/13--13---------|
A|-------------------------|-------------------------|-------------------------|-----------------------|
E|-------------------------|-------------------------|-------------------------|-----------------------|
(Cory's part *the lower strings, D A E, are palm muted throughout the song)
e|--1-x--------------------|-------------------------|--1-x--------------------|-----------------------|
B|--4-x--------------------|-------------------------|--4-x--------------------|-----------------------|
G|-------------------------|-------------------------|-------------------------|-----------------------|
D|----------1-1-1-1--------|------1-1-1-1------------|----------1-1-1-1--------|------1/3----3---------|
A|-------------------------|-------------------------|-------------------------|-----------------------|
E|-------------------------|-------------------------|-------------------------|-----------------------|
(that is like 75% of the song, then it goes just to Ab7, Bb7, then Db7 chords) 
e|---------------------------------------------------------------------------|
B|---------------------------------------------------------------------------|
G|---------------------------------------------------------------------------|
D|---------------------------------------------------------------------------|
A|----------------4----------------------------------------------------------|
E|----4-----6----------------------------------------------------------------|
or
e|----8-----10----13---------------------------------------------------------|
B|----7-----9-----12---------------------------------------------------------|
G|----8-----10----13---------------------------------------------------------|
D|----6-----8-----11---------------------------------------------------------|
A|---------------------------------------------------------------------------|
E|---------------------------------------------------------------------------|

(Back to the beginning!)

[Guitar Solo Jam]
(Then the guitar solo thing happens and its)
e|---------------------------------------------------------------------------|
B|---------------------------------------------------------------------------|
G|---------------------------------------------------------------------------|
D|--3--x--x--3-----1--x--x--1-----1--x--x--1------1--x--x--1--2--------------|
A|--------------3--------------3---------------3-----------------------------|
E|---------------------------------------------------------------------------|

e|---------------------------------------------------------------------------|
B|---------------------------------------------------------------------------|
G|---------------------------------------------------------------------------|
D|--3--x--x--3-----1--x--x--1-----1--x--x--1-----1-----------1---------------|
A|--------------3--------------3--------------3-----3--2--1-----3------------|
E|---------------------------------------------------------------------------|
then repeat

(also in the song when Cory plays the guitar fill its this *its played really quickly)
e|--11----11--11--11--12----12--12--12--13----13--13--13---------------------|
B|--10----10--10--10--11----11--11--11--12----12--12--12---------------------|
G|--11----11--11--11--12----12--12--12--13----13--13--13---------------------|
D|---------------------------------------------------------------------------|
A|---------------------------------------------------------------------------|
E|---------------------------------------------------------------------------|
************************************

| /  Slide up
| x  Dead note / percussive hit

************************************

            
            
Suggest correction
Creating personal tab
Creating personal tab
You can edit any tab online and save it as your Personal.

You can edit, replace or remove any tab part or add personal notes – all changes will be seen only by you.

Personal tabs can be accessed anytime from any device, even offline.
Learn more »
comments
print report bad tab
2 comments total.
0 reply
kevinshark18 10 Aug 28, 2017 11:56 AM

Nice work!!!

0 reply
bored_af 10 Sep 08, 2017 10:35 AM

You tabbed a vulf song and thats 10/10

guest
You may want to rate the tab now too:
select rating
Wanna post a correction for this tab? Suggest correction