Oops, an error
Loading. Please wait.

Dean Town Bass Tab

version 1
version 1

Whole song

  • Very precise tab - whole song including imrpov section.

Interactive

7,753 views 942 this week
1 commentread comment
1 2 3 4 5
x 9
add to favorites
launch autoscroll
font size
0
reset
guitar tuner
Autoscroll
slow
fast
+/-
esc
set tempo
stop
Help us to improve Ultimate-Guitar.com Take our survey!
×
Author
Difficulty
Tuning
advanced
E A D G B E
Vulfpeck - Dean Town (Bass Tab)

- Listen to the song to get hammer-ons.

[Intro 1]

G|---------------------------------------------------|
D|---------------------------------------------------|
A|---------------------------------------------------|
E|2-2-2-2-2-2-2-2-2-2-2-2-2-2-2-2--for eight measure-|

[Intro 2]

G|--------------------------------|--------------------------------|
D|4-4-4-4-4-4-4-4-4-4-4-4-4-4-4-4-|4-4-4-4-4-4-4-4-4-4-4-4-4-4-4-4-|
A|--------------------------------|--------------------------------|
E|--------------------------------|--------------------------------|

G|--------------------------------|--------------------------------|
D|--------------------------------|--------------------------------|
A|4-4-4-4-4-4-4-4-4-4-4-4-4-4-4-4-|4-4-4-4-4-4-4-4-4-4-4-4-4-4-4-4-|
E|--------------------------------|--------------------------------|

G|--------------------------------|--------------------------------|
D|2-2-2-2-2-2-2-2-2-2-2-2-2-2-2-2-|2-2-2-2-2-2-2-2-2-2-2-2-2-2-2-2-|
A|--------------------------------|--------------------------------|
E|--------------------------------|--------------------------------|

G|--------------------------------|--------------------------------|
D|--------------------------------|--------------------------------|
A|2-2-2-2-2-2-2-2-2-2-2-2-2-2-2-2-|2-2-2-2-2-2-2-2-2-2-2-2-2-2-2-2-|
E|--------------------------------|--------------------------------| x2


[The Riff]

G|--------|----------------||  2-----2---------|---------------------------------|
D|----1---|2-1-------------||o 1-----2-----2---|2-4-----2------2h4-------2-----2-|
A|--2---4-|----4-0---------||o ----------4---4-|------------4----------------4---|
E|--------|--------2-------||  ----------------|---------------------------------|

G|--------------------------------|--------------------------------|------------6---7-6-------------|
D|--------------------2-------4-2-|----------------2---------------|--9-----------9-----9-------4---|
A|4-2-0-------2-0-2h4-------------|----2-----4---------4-2-4---5-6-|7---7-----------------7-------7-|
E|------4-------------------------|--------------------------------|--------------------------------|

G|----------9-----7-----6-----5---|4-------------------------------|--------------------------------|
D|5-6-7-8-9-----------------------|--4----------4-------6-4--------|----4-4-6-4-----4-------2-----3-|
A|--------------------------------|----2---4h6-----------------4-2-|4h6---------6-------------------|
E|--------------------------------|--------------------------------|--------------------------------|

G|--2-4---2-----------------------|--------------------------------|--------------------------------|
D|4-----------4-2-4---------------|--------------------------------|--------------------------------|
A|--------------------------------|----------------------------2-3-|4-------------------------------|
E|--------------------------------|----2-----2-----2---------------|----------------------------4---|

G|--------------------------------|--------------------------------|--------------------------------|
D|--------------------------------|2-------------------------------|--------------------2-----------|
A|4---------------------------2---|--4-2---------------------------|------------2-2-2-4-----4---2-0-|
E|------------------------------4-|------4-0-----------0-0-0---2-2-|2---4-4-4-----------------------|

G|--------------------------------|--------------------------------|----------------  ||
D|------------4-------6-4---------|----4-4-6-4---6-4---------------|---------------- o||
A|2---2-2-4h6-----------------4-2-|4h6---------6-----6-4-6-6-6-4-6-|7-6-4-0--------- o||
E|--------------------------------|--------------------------------|--------2-------  ||

[Jam (Improvise)]

G|--------------------------------|--------------------------------|
D|--------------------------------|--------------------------------|
A|--------------------------------|--------------------------------|
E|2-2-2-2-2-2-2-2-2-2-2-2-2-2-2-2-|2-2-2-2-2-2-2-2-2-2-2-2-2-2-2-2-|

G|--------------------------------|--------------------------------|
D|--------------------------------|--------------------------------|
A|4-4-4-4-4-4-4-4-4-4-4-4-4-4-4-4-|4-4-4-4-4-4-4-4-4-4-4-4-4-4-4-4-|
E|--------------------------------|--------------------------------|

G|--------------------------------|--------------------------------|
D|2-2-2-2-2-2-2-2-2-2-2-2-2-2-2-2-|2-2-2-2-2-2-2-2-2-2-2-2-2-2-2-2-|
A|--------------------------------|--------------------------------|
E|--------------------------------|--------------------------------|

G|--------------------------------|--------------------------------|
D|--------------------------------|--------------------------------|
A|2-2-2-2-2-2-2-2-2-2-2-2-2-2-2-2-|2-2-2-2-2-2-2-2-2-2-2-2-2-2-2-2-|
E|--------------------------------|--------------------------------| x4


[The Riff again]

G|--------|----------------2-----2---------|---------------------------------|
D|----1---|2-1-------------1-----2-----2---|2-4-----2------2h4-------2-----2-|
A|--2---4-|----4-0-------------------4---4-|------------4----------------4---|
E|--------|--------2-----------------------|---------------------------------|

G|--------------------------------|--------------------------------|------------6---7-6-------------|
D|--------------------2-------4-2-|----------------2---------------|--9-----------9-----9-------4---|
A|4-2-0-------2-0-2h4-------------|----2-----4---------4-2-4---5-6-|7---7-----------------7-------7-|
E|------4-------------------------|--------------------------------|--------------------------------|

G|----------9-----7-----6-----5---|4-------------------------------|--------------------------------|
D|5-6-7-8-9-----------------------|--4----------4-------6-4--------|----4-4-6-4-----4-------2-----3-|
A|--------------------------------|----2---4h6-----------------4-2-|4h6---------6-------------------|
E|--------------------------------|--------------------------------|--------------------------------|

G|--2-4---2-----------------------|--------------------------------|--------------------------------|
D|4-----------4-2-4---------------|--------------------------------|--------------------------------|
A|--------------------------------|----------------------------2-3-|4-------------------------------|
E|--------------------------------|----2-----2-----2---------------|----------------------------4---|

G|--------------------------------|--------------------------------|--------------------------------|
D|--------------------------------|2-------------------------------|--------------------2-----------|
A|4---------------------------2---|--4-2---------------------------|------------2-2-2-4-----4---2-0-|
E|------------------------------4-|------4-0-----------0-0-0---2-2-|2---4-4-4-----------------------|

G|--------------------------------|--------------------------------|----------------||
D|------------4-------6-4---------|----4-4-6-4---6-4---------------|----------------||
A|2---2-2-4h6-----------------4-2-|4h6---------6-----6-4-6-6-6-4-6-|7-6-4-0---------||
E|--------------------------------|--------------------------------|--------2-------||


[END]

************************************

| h   Hammer-on


************************************
Suggest correction
comments
print report bad tab
1 comment total.
0 reply
MaggaraMarine 1,213 Oct 30, 2016 12:47 PM

Look at the solo tab. It is correct (though it lacks those chords in the second bar of the riff). This tab has some small mistakes in it and also some "incorrect" fingerings (watch the video to see how Joe plays it).

guest
You may want to rate the tab now too:
select rating
Wanna post a correction for this tab? Suggest correction