Oops, an error
Loading. Please wait.

Dean Town Bass

version 1
version 1

Whole song

  • Very precise tab - whole song including imrpov section.

Interactive

23,575 views 645 this week
3 commentsread comments
1 2 3 4 5
x 12
add to favorites
launch autoscroll
font size
0
reset
guitar tuner
×
Best way to learn
"Dean Town"
Autoscroll
slow
fast
+/-
esc
set tempo
stop
Author
Difficulty
Tuning
  follow
advanced
E A D G B E
Vulfpeck - Dean Town (Bass Tab)

- Listen to the song to get hammer-ons.

[Intro 1]

G|---------------------------------------------------|
D|---------------------------------------------------|
A|---------------------------------------------------|
E|2-2-2-2-2-2-2-2-2-2-2-2-2-2-2-2--for eight measure-|

[Intro 2]

G|--------------------------------|--------------------------------|
D|4-4-4-4-4-4-4-4-4-4-4-4-4-4-4-4-|4-4-4-4-4-4-4-4-4-4-4-4-4-4-4-4-|
A|--------------------------------|--------------------------------|
E|--------------------------------|--------------------------------|

G|--------------------------------|--------------------------------|
D|--------------------------------|--------------------------------|
A|4-4-4-4-4-4-4-4-4-4-4-4-4-4-4-4-|4-4-4-4-4-4-4-4-4-4-4-4-4-4-4-4-|
E|--------------------------------|--------------------------------|

G|--------------------------------|--------------------------------|
D|2-2-2-2-2-2-2-2-2-2-2-2-2-2-2-2-|2-2-2-2-2-2-2-2-2-2-2-2-2-2-2-2-|
A|--------------------------------|--------------------------------|
E|--------------------------------|--------------------------------|

G|--------------------------------|--------------------------------|
D|--------------------------------|--------------------------------|
A|2-2-2-2-2-2-2-2-2-2-2-2-2-2-2-2-|2-2-2-2-2-2-2-2-2-2-2-2-2-2-2-2-|
E|--------------------------------|--------------------------------| x2


[The Riff]

G|--------|----------------||  2-----2---------|---------------------------------|
D|----1---|2-1-------------||o 1-----2-----2---|2-4-----2------2h4-------2-----2-|
A|--2---4-|----4-0---------||o ----------4---4-|------------4----------------4---|
E|--------|--------2-------||  ----------------|---------------------------------|

G|--------------------------------|--------------------------------|------------6---7-6-------------|
D|--------------------2-------4-2-|----------------2---------------|--9-----------9-----9-------4---|
A|4-2---------2---2h4-------------|----2-----4---------4-2-4---5-6-|7---7-----------------7-------7-|
E|----5-4-------4-----------------|--------------------------------|--------------------------------|

G|----------9-----7-----6-----5---|4-------------------------------|--------------------------------|
D|5s6s7s8s9-----------------------|--4----------4-------6-4--------|----4-4-6-4-----4-------2-----3-|
A|--------------------------------|----2---4h6-----------------4-2-|4h6---------6-------------------|
E|--------------------------------|--------------------------------|--------------------------------|

G|--2h4---2-----------------------|--------------------------------|--------------------------------|
D|4-----------4-2-4---------------|--------------------------------|--------------------------------|
A|--------------------------------|----------------------------2-3-|4-------------------------------|
E|--------------------------------|----2-----2-----2---------------|----------------------------4---|

G|--------------------------------|--------------------------------|--------------------------------|
D|--------------------------------|2-------------------------------|--------------------2-----------|
A|2h4-------------------------4-2-|--4-2---------------------------|------------2-2-2-4-----4---2---|
E|--------------------------------|------4-0-----------0-0-0---2-2-|2---4-4-4---------------------5-|

G|--------------------------------|--------------------------------|----------------  ||
D|------------4-------6-4---------|----4-4-6-4---6-4---------------|2-1------------- o||
A|2---2-2-4h6-----------------4-2-|4h6---------6-----6-4-6-6-6-4-6-|----4-0--------- o||
E|--------------------------------|--------------------------------|--------2-------  ||


[Jam (Improvise)]

G|--------------------------------|--------------------------------|
D|--------------------------------|--------------------------------|
A|--------------------------------|--------------------------------|
E|2-2-2-2-2-2-2-2-2-2-2-2-2-2-2-2-|2-2-2-2-2-2-2-2-2-2-2-2-2-2-2-2-|

G|--------------------------------|--------------------------------|
D|--------------------------------|--------------------------------|
A|4-4-4-4-4-4-4-4-4-4-4-4-4-4-4-4-|4-4-4-4-4-4-4-4-4-4-4-4-4-4-4-4-|
E|--------------------------------|--------------------------------|

G|--------------------------------|--------------------------------|
D|2-2-2-2-2-2-2-2-2-2-2-2-2-2-2-2-|2-2-2-2-2-2-2-2-2-2-2-2-2-2-2-2-|
A|--------------------------------|--------------------------------|
E|--------------------------------|--------------------------------|

G|--------------------------------|--------------------------------|
D|--------------------------------|--------------------------------|
A|2-2-2-2-2-2-2-2-2-2-2-2-2-2-2-2-|2-2-2-2-2-2-2-2-2-2-2-2-2-2-2-2-|
E|--------------------------------|--------------------------------| x4


[The Riff again]

G|--------|----------------||  2-----2---------|---------------------------------|
D|----1---|2-1-------------||o 1-----2-----2---|2-4-----2------2h4-------2-----2-|
A|--2---4-|----4-0---------||o ----------4---4-|------------4----------------4---|
E|--------|--------2-------||  ----------------|---------------------------------|

G|--------------------------------|--------------------------------|------------6---7-6-------------|
D|--------------------2-------4-2-|----------------2---------------|--9-----------9-----9-------4---|
A|4-2---------2---2h4-------------|----2-----4---------4-2-4---5-6-|7---7-----------------7-------7-|
E|----5-4-------4-----------------|--------------------------------|--------------------------------|

G|----------9-----7-----6-----5---|4-------------------------------|--------------------------------|
D|5s6s7s8s9-----------------------|--4----------4-------6-4--------|----4-4-6-4-----4-------2-----3-|
A|--------------------------------|----2---4h6-----------------4-2-|4h6---------6-------------------|
E|--------------------------------|--------------------------------|--------------------------------|

G|--2h4---2-----------------------|--------------------------------|--------------------------------|
D|4-----------4-2-4---------------|--------------------------------|--------------------------------|
A|--------------------------------|----------------------------2-3-|4-------------------------------|
E|--------------------------------|----2-----2-----2---------------|----------------------------4---|

G|--------------------------------|--------------------------------|--------------------------------|
D|--------------------------------|2-------------------------------|--------------------2-----------|
A|2h4-------------------------4-2-|--4-2---------------------------|------------2-2-2-4-----4---2---|
E|--------------------------------|------4-0-----------0-0-0---2-2-|2---4-4-4---------------------5-|

G|--------------------------------|--------------------------------|----------------  ||
D|------------4-------6-4---------|----4-4-6-4---6-4---------------|2-1------------- o||
A|2---2-2-4h6-----------------4-2-|4h6---------6-----6-4-6-6-6-4-6-|----4-0--------- o||
E|--------------------------------|--------------------------------|--------2-------  ||

[END]

************************************

| h   Hammer-on
| s   Slide


************************************
Suggest correction
comments
print report bad tab
3 comments total.
+1 reply
MaggaraMarine 1,223 Oct 30, 2016 08:47 AM

Look at the solo tab. It is correct (though it lacks those chords in the second bar of the riff). This tab has some small mistakes in it and also some "incorrect" fingerings (watch the video to see how Joe plays it).

0 reply
yandrick.alpha.grima 10 Mar 28, 2017 09:11 AM

👍

guest
You may want to rate the tab now too:
select rating
Wanna post a correction for this tab? Suggest correction