Oops, an error
Loading. Please wait.

Dean Town Bass Tab

version 2
version 2

Whole song

  • Very precise tab - whole song including imrpov section.

Interactive

595 views 57 this week
no commentswrite comment
1 2 3 4 5
2 more votes to show rating
add to favorites
launch autoscroll
font size
0
reset
guitar tuner
Autoscroll
slow
fast
+/-
esc
set tempo
stop
Help us to improve Ultimate-Guitar.com Take our survey!
×
Author
Difficulty
advanced
About this tab version
Very precise tab - whole song including imrpov section. Was this info helpful? Yes No
Title: Dean Town
Artist: Vulfpeck
Tabber: Alex "Zandy" Wight
Tempo = 109


[Intro] (repeat 8x)
G|-------------------------------------------------||
D|o-----------------------------------------------o||
A|o-----------------------------------------------o||
E|-2--2--2--2--2--2--2--2--2--2--2--2--2--2--2--2--||

 [Head] (repeat 2x)
G||--------------------------------------------------|
D||o-4--4--4--4--4--4--4--4--4--4--4--4--4--4--4--4--|
A||o-------------------------------------------------|
E||--------------------------------------------------|


G|----------------------------------------------------|
D|--4--4--4--4--4--4--4--4--4--4--4--4--4--4--4--4----|
A|----------------------------------------------------|
E|----------------------------------------------------|


G|----------------------------------------------------|
D|----------------------------------------------------|
A|--4--4--4--4--4--4--4--4--4--4--4--4--4--4--4--4----|
E|----------------------------------------------------|


G|----------------------------------------------------|
D|----------------------------------------------------|
A|--4--4--4--4--4--4--4--4--4--4--4--4--4--4--4--4----|
E|----------------------------------------------------|


G|----------------------------------------------------|
D|--2--2--2--2--2--2--2--2--2--2--2--2--2--2--2--2----|
A|----------------------------------------------------|
E|----------------------------------------------------|


G|----------------------------------------------------|
D|--2--2--2--2--2--2--2--2--2--2--2--2--2--2--2--2----|
A|----------------------------------------------------|
E|----------------------------------------------------|


G|----------------------------------------------------|
D|----------------------------------------------------|
A|--2--2--2--2--2--2--2--2--2--2--2--2--2--2--2--2----|
E|----------------------------------------------------|

 [first time through play this bar]
G|---------------------------------------------------||
D|--------------------------------------------------o||
A|--2--2--2--2--2--2--2--2--2--2--2--2--2--2--2--2--o||
E|---------------------------------------------------||

  [second time play this bar]
G|----------------------------------------------------||
D|----------------------------------------------------||
A|--2--2--2--2--2--2--2--2--2--2--2--2--2--2--6--4----||
E|----------------------------------------------------||

 [Main Lick] (repeat 2x)
G||--------------------------2--------2---------------|
D||o-2-----------------------1--------2--------2------|
A||o----6--4--0-----------------------------4-----4---|
E||--------------2------------------------------------|


--------------------------------------------------------------------------------
--2.----4~----------------2.----------------------2h-4.----------------------2--
--------------------------------------4.----------------------------------------
--------------------------------------------------------------------------------


G|-----------------------|----------------------------------------------------|
D|---------------2-------|--------------------------------2-----------4--2----|
A|---------4-------------|--4--2--------------2-----2--4----------------------|
E|-----------------------|--------5--4-----------5----------------------------|


G|----------------------------------------------------|
D|--------------------------2-------------------------|
A|-----x--2--------4--------------4--2--4-----5--6----|
E|----------------------------------------------------|


G|--------------------6-----7--6----------------------|
D|-----9-----------------9--------9-----------4-------|
A|--7-----7--------------------------7-----------7----|
E|----------------------------------------------------|


G|-----------------9--------7--------6--------5-------|
D|--5--6--7--8--9--------<7>---------------x----------|
A|----------------------------------------------------|
E|----------------------------------------------------|


G|--4-------------------------------------------------|
D|-----4--------------4-----------6--4----------------|
A|--------2-----4--6--------------------------4--2----|
E|----------------------------------------------------|


G|----------------------------------------------------|
D|--------4--4--6--4--------4.----------2--------3----|
A|--4--6--------------6.------------------------------|
E|----------------------------------------------------|


G|-----2h-4-----2-------------------------------------|
D|--4-----------------4--2--4~------------------------|
A|----------------------------------------------------|
E|----------------------------------------------------|


G|----------------------------------------------------|
D|----------------------------------------------------|
A|--------------------------------------------2--3----|
E|--------2.-------2.-------2.------------------------|


G|----------------------------|
D|----------------------------|
A|--4-------------------------|
E|-----------------------4.---|


G|----------------------------------------------------|
D|----------------------------------------------------|
A|--2h-4--------------------------------------4--2----|
E|----------------------------------------------------|


G|----------------------------------------------------|
D|--2-------------------------------------------------|
A|-----4--2-------------------------------------------|
E|-----------4--0-----------------0--0--0-----2--2----|


G|----------------------------------------------------|
D|--------------------------------2-------------------|
A|--------------------2--2--2--4--------4-----2-------|
E|--2-----4--4--4--------------------------------5----|


G|----------------------------------------------------|
D|--------------------4-----------6--4----------------|
A|--2-----4--2--4h-6--------------------------4--2----|
E|----------------------------------------------------|


G|---------------------------------------------------||
D|--------4--4--6--4-----6--4-----------------------o||
A|--4--6--------------6--------6--4--6--6--6--4--6--o||
E|---------------------------------------------------||

  [Head]
G|----------------------------------------------------|
D|--2-------------------------------------------------|
A|-----6--4--0----------------------------------------|
E|--------------2--2--2--2--2--2--2--2--2--2--2--2----|


G|----------------------------------------------------|
D|----------------------------------------------------|
A|--------------------------------------------2--3----|
E|--2--2--2--2--2--2--2--2--2--2--2--2--2--2----------|


G|----------------------------------------------------|
D|----------------------------------------------------|
A|--4--4--4--4--4--4--4--4--4--4--4--4--4--4--4--4----|
E|----------------------------------------------------|


G|----------------------------------------------------|
D|--------------------------------------------4--3----|
A|--4--4--4--4--4--4--4--4--4--4--4--4--4--4----------|
E|----------------------------------------------------|


G|----------------------------------------------------|
D|--2--2--2--2--2--2--2--2--2--2--2--2--2--2--2--2----|
A|----------------------------------------------------|
E|----------------------------------------------------|


G|----------------------------------------------------|
D|--2--2--2--2--2--2--2--2--2--2--2--2--2--2--2--2----|
A|----------------------------------------------------|
E|----------------------------------------------------|


G|----------------------------------------------------|
D|----------------------------------------------------|
A|--2--2--2--2--2--2--2--2--2--2--2--2--2--2--2--2----|
E|----------------------------------------------------|


G|-----------------------------------2----------------|
D|-----------------------------2--4-----4--2----------|
A|--2--2--2--2--2--2--2--3h-4-----------------4--2----|
E|----------------------------------------------------|

                                             [triplet]
G|----------------------------------------------------|
D|-----------------------------2------2h4-----L-2-----|
A|--------------------------------4--2-----------4----|
E|--2--2--2--2--2--2--2--2--2-------------------------|


G|----------------------------------------------------|
D|----------------------------------------------------|
A|--------------------------------------------2--3----|
E|--2--2--2--2--2--0--2--0--2--0--4--0--5--0----------|


G|----------------------------------------------------|
D|----------------------------------------------------|
A|--4--4--4--4--4--4--4--4--4--4--4--4--4--4--4--4----|
E|----------------------------------------------------|


G|--------------------4--5--6-------------------------|
D|-----------------------------6.----4--L-----3-------|
A|--4--4--4--4--4--4--------------4.-------4----------|
E|----------------------------------------------------|


G|----------------------------------------------------|
D|--2-----2--2--2--2--2--2--2--2--2--2--2--2--2--2----|
A|----------------------------------------------------|
E|----------------------------------------------------|


G|----------------------------------------------------|
D|--2--2--2--2--2--2--2--2--2--------2--4--2----------|
A|-----------------------------2--4-----------4--3----|
E|----------------------------------------------------|


G|----------------------------------------------------|
D|----------------------------------------------------|
A|--2--2--2--2--2--2--2--2--2--2--2--2--2--2--2--2----|
E|----------------------------------------------------|

                                             [triplet]
G|-----------------------------------2----------------|
D|------------------------------------2h4-----L-2-----|
A|--2--2--2--2--2--2--2--2--2--2--2--------------4----|
E|----------------------------------------------------|


G|----------------------------------------------------|
D|-----------------------------------2--------4--4----|
A|-----------------------------2--4--------x----------|
E|--2--2--2--2--2--2--2--2--2-------------------------|


G|----------------------------------------------------|
D|-----------------------------------2-----2----------|
A|-----------------------------2h-4-----------4--2----|
E|--2--2--2--2--2--2--2--2--2-------------------------|


G|-----------------------------4--5--6----------------|
D|-----------------------------------------x----------|
A|--4--4--4--4--4--4--4--4--4-----------------x-------|
E|-----------------------------------------------x----|


G|----------------------------------------------------|
D|--4--6-----4-----2--------------------2-----4-------|
A|-----------------------4-----2--4--2-----4----------|
E|----------------------------------------------------|


G|----------------------------------------------------|
D|--2--2--2--2--2--2--2--2--2--------------4--3--2----|
A|-----------------------------2--3--4----------------|
E|----------------------------------------------------|


G|----------------------------------------------------|
D|--L-------------------------------------------------|
A|-----x--2-----------------------------------4--3----|
E|-----------x--4-----2~----0--0--2--0--4--0----------|


G|--------------------------------------------2--3----|
D|----------------------------------------------------|
A|--2--2--2--2--2--2--2--2--2--2--2--2--2--2----------|
E|----------------------------------------------------|


G|--4--L--L--L----------------------------------------|
D|----------------------------------------------------|
A|-----2--2--2--2--2--2--2--2--2--2--2--2--2--6--4----|
E|----------------------------------------------------|

  [Main Lick]
G|--------------------------2--------2----------------|
D|--2-----------------------1--------2--------2-------|
A|-----6--4--0-----------------------------4-----4----|
E|--------------2-------------------------------------|


--------------------------------------------------------------------------------
--2.----4~----------------2.----------------------2h-4.----------------------2--
--------------------------------------4.----------------------------------------
--------------------------------------------------------------------------------


G|-----------------------|----------------------------------------------------|
D|---------------2-------|--------------------------------2-----------4--2----|
A|---------4-------------|--4--2--------------2-----2--4----------------------|
E|-----------------------|--------5--4-----------5----------------------------|


G|----------------------------------------------------|
D|--------------------------2-------------------------|
A|-----x--2--------4--------------4--2--4-----5--6----|
E|----------------------------------------------------|


G|--------------------6-----7--6----------------------|
D|-----9-----------------9--------9-----------4-------|
A|--7-----7--------------------------7-----------7----|
E|----------------------------------------------------|


G|-----------------9--------7--------6--------5-------|
D|--5--6--7--8--9-------<7>----------------x----------|
A|----------------------------------------------------|
E|----------------------------------------------------|


G|--4-------------------------------------------------|
D|-----4--------------4-----------6--4----------------|
A|--------2-----4--6--------------------------4--2----|
E|----------------------------------------------------|


G|----------------------------------------------------|
D|--------4--4--6--4--------4.----------2--------3----|
A|--4--6--------------6.------------------------------|
E|----------------------------------------------------|


G|-----2h-4-----2-------------------------------------|
D|--4-----------------4--2--4~------------------------|
A|----------------------------------------------------|
E|----------------------------------------------------|


G|----------------------------------------------------|
D|----------------------------------------------------|
A|--------------------------------------------2--3----|
E|--------2.-------2.-------2.------------------------|


G|----------------------------|
D|----------------------------|
A|--4-------------------------|
E|-----------------------4.---|


G|----------------------------------------------------|
D|----------------------------------------------------|
A|--2h-4--------------------------------------4--2----|
E|----------------------------------------------------|


G|----------------------------------------------------|
D|--2-------------------------------------------------|
A|-----4--2-------------------------------------------|
E|-----------4--0-----------------0--0--0-----2--2----|


G|----------------------------------------------------|
D|--------------------------------2-------------------|
A|--------------------2--2--2--4--------4-----2-------|
E|--2-----4--4--4--------------------------------5----|


G|----------------------------------------------------|
D|--------------------4-----------6--4----------------|
A|--2-----4--2--4h-6--------------------------4--2----|
E|----------------------------------------------------|


G|----------------------------------------------------|
D|--------4--4--6--4-----6--4-------------------------|
A|--4--6--------------6--------6--4--6--6--6--4--6----|
E|----------------------------------------------------|


G|----------------------------------------------------|
D|--2-------------------------------------------------|
A|-----6--4--0----------------------------------------|
E|--------------2-------------------------------------|



************************************

Legend
L - tied note
x - dead note
h - hammer on/pull off
~ - vibrato
. - staccato
< > - natural harmonic (e.g. <7>)

************************************
Suggest correction
Give kudos to tab author, rate the tab!
1 2 3 4 5
comments
print report bad tab
guest
You may want to rate the tab now too:
select rating
Wanna post a correction for this tab? Suggest correction