Oops, an error
Loading. Please wait.

Welcome To Vulf Records bass

1,069 views 36 this week
2 commentsread comments
1 2 3 4 5
x 3
add to favorites
×
Save as Personal and add changes to this tab that will be seen only by you. Learn more ›
×
You can save this tab as Personal to edit and correct it or add notes. All changes will be seen only by you. Learn more »
launch autoscroll
font size
0
reset
guitar tuner
edit
Autoscroll
slow
fast
+/-
esc
set tempo
stop
Author
Difficulty
Vulfpeck /// Welcome to Vulf Records
Album: Thrill of the Arts
Tabbed by: Connor Paintin


(come in after piano intro, enter with drums)
                              [crazy fill #1--------------]
G|---------------------------------------------------------------------------|
D|--------------------------------15-13--------------------------------------|
A|-----/13---------------------3/---x----15-x-11h12-x------------------------|
E|------------5-4-3-2-1-1-0-1-------------------------13/1-------------------|

            [crazy fill #2------------------------------------]
G|-----------------12-13-14-13-12-10-----------------------------------------|
D|--------------15-------------------12-10-13-10-12-8------------------------|
A|-----------3/---------------------------------------15-11------------------|
E|--1-1-0-1-------------------------------------------------\1---------------|

G|---------------------------------------------------------------------------|
D|---------------------------------------------------------------------------|
A|-------------------------------5-6-7-----------------------------6-6-------|
E|--1-1-0-1-2-3-2-3-4-5-4-5-6--8-------7-6-5-5-4-4-3-3-2-2-1-1-0-0-----4-----|

(synth starts)
G|---------------------------------------------------------------------------|
D|---------------------------------------------------------------------------|
A|---------------------------------------------------------------------------|
E|---3(hold)----1(hold)----0(hold)----1(hold)---3--3--3--3--1--1--1--1-------|

G|---------------------------------------------------------------------------|
D|---------------------------------------------------------------------------|
A|--------------5-5-5-5-55555555-------5-6-7--------7-8-9--8-8-8-8-8---------|
E|--0--0--0--0---------------------8-8--------10-10------------------5-6-7---|

G|---------------------------------------------------------------------------|
D|---------------------------------------------------------------------------|
A|------5-6-7--------7-8-9--8-8-8-8-8------------5-6-7--------7-8-9---7-7----|
E|--8-8--------10-10------------------5-6-7--8-8--------10-10----------------|

G|---------------------------------------------------------------------------|
D|--6-6--7-7--5-5---3-3-2-0-3--3-2-0--3-3-2-0--5-555-5-5--3-3-2-0-3--3-2-0---|
A|---------------------------------------------------------------------------|
E|---------------------------------------------------------------------------|

G|---------------------------------------------------------------------------|
D|-3-3-2-0--------------3-3-2-0-3--3-2-0---3-2-0-----------------------------|
A|-----------------------------------------------3-2-0-----------------------|
E|----------3---3---3----------------------------------3-1----(rest)---------|

(Joey Dosik awakes from his slumber to bless this track)
G|---------------------------------------------------------------------------|
D|--/12----------------------------------------------------------------------|
A|-------------3--3-4-5--------------------------3--3-4-5--5-7-8--8-7-6--5-4-|
E|-------12\-------------1(release quickly)----------------------------------|

G|---------------------------------------------------------------------------|
D|---------------------------------5h7-5-------------------------------------|
A|---3---3----0-1-1------0---------------8-7-5---5-6-7---------------3-------|
E|--3---3---3--------1-3--------------------------------1-----1--5---------3-|

G|---------------------------------------------------------------------------|
D|---------------------------------------------------------------------------|
A|-----------3-3--(hold out)-------------------------------------------------|
E|---------------------------------------------------------------------------|



************************************

| x  Dead note
| h  Hammer-on
| /  Slide up
| \  Slide down
 

************************************

            
            
Suggest correction
Creating personal tab
Creating personal tab
You can edit any tab online and save it as your Personal.

You can edit, replace or remove any tab part or add personal notes – all changes will be seen only by you.

Personal tabs can be accessed anytime from any device, even offline.
Learn more »
Give kudos to tab author, rate the tab!
1 2 3 4 5
comments
print report bad tab
2 comments total.
+1 reply
21pilots 140 Mar 25, 2017 12:36 PM

Perfect! Thanks so much.

0 reply
bored_af 10 Apr 12, 2017 02:02 AM

Amazing tab! But why is the difficulty set on intermediate?

guest
You may want to rate the tab now too:
select rating
Wanna post a correction for this tab? Suggest correction