Oops, an error
Loading. Please wait.

Wild Child bass

version 2
version 2

Whole song

Interactive

5,501 views 15 this week
1 commentread comment
1 2 3 4 5
x 3
add to favorites
×
Save as Personal and add changes to this tab that will be seen only by you. Learn more ›
×
You can save this tab as Personal to edit and correct it or add notes. All changes will be seen only by you. Learn more »
launch autoscroll
font size
0
reset
guitar tuner
backing track
0:00
0:00
edit
Autoscroll
slow
fast
+/-
esc
set tempo
stop
Author
++++++++++++++++++++++++++++++++++++++++++++++++++++++++++++++++++++++++++++
W.A.S.P. - Wild Child
++++++++++++++++++++++++++++++++++++++++++++++++++++++++++++++++++++++++++++
Origionally tabbed by: Deadhead Raven

Standerd Tuning

The Bass Follows the drums for most of the song

Intro
|----------------------|
|----------------------|
|------4----1----------|
|-1--------------1-----|


Verse
|-------------------------------------------------|
|-------------------------------------------------|
|-----------------4444-44-4444-44-1111-11-1111-11-|
|-1111-11-1111-11---------------------------------|

|-------------------------------------------------|
|-------------------------------------------------|
|-------------4-6-----------------4444-44-4444-44-|
|-1111-11-111-----1111-11-1111-11-----------------|

|---------------------------------------------------|
|---------------------------------------------------|
|-1111-11-1111--------------------------------------|
11--------------4-6--444444-666666------------------|
|-----------------1111-11-111-----------------------|

|----------------------------------|
|----------------------------------|
|------------444444-666666-333333--|
|-1111111111-----------------------|


Chorus
|---------------------------------------------------|
|---------------------------------------------------|
|-----------444444-666666------------4444444-111111-|
|-111111111---------------1111111111----------------|

|---------------------------------------------------|
|---------------------------------------------------|
|-----------444444-666666------------4444444-111111-|
|-111111111---------------1111111111----------------|

|-------------------------|
|-------------------------|
|-------------------------|
|-111-111-111-111-111-111-|


Play The Verse
Play The Chorus


Solo
|----------------------------------------------------|
|----------------------------------------------------|
|----------------------------------------------------|
|-11111111111111111111111111111111111111111111111111-| (Repeat following
drums untill chours)


Play The Chorus


Outro
|----------------------------------------------------|
|----------------------------------------------------|
|----------------------------------------------------|
|-11111111111111111111111111111111111111111111111111-| (Repeat till end)

++++++++++++++++++++++++++++++++++++++++++++++++++++++++++++++++++++++++++++

            
            
Suggest correction
Creating personal tab
Creating personal tab
You can edit any tab online and save it as your Personal.

You can edit, replace or remove any tab part or add personal notes – all changes will be seen only by you.

Personal tabs can be accessed anytime from any device, even offline.
Learn more »
Give kudos to tab author, rate the tab!
1 2 3 4 5
comments
print report bad tab
1 comment total.
0 reply
xxxxChrisTxxxx [tm] 10,225 May 16, 2014 10:54 PM

Think this should be tuned 1/2 step down, the chorus sounds more like....

Gb|---------------------------------------------------|
Db|---------------------------------------------------|
Ab|-----------555555-------------------5555555--------|
Eb|-222222222--------000000-2222222222---------000000-|


and at the end of the intro there's this...
Gb|-----------|
Db|-----------|
Ab|-----------|
Eb|-/14-0-2---|

guest
You may want to rate the tab now too:
select rating
Wanna post a correction for this tab? Suggest correction