Oops, an error
Loading. Please wait.

Who I Am Chords

version 2
version 2

Whole song

1,662 views 1 this week
2 commentsread comments
1 2 3 4 5
accurate
x 3
add to favorites
launch autoscroll
font size
0
reset
transpose
0
reset
simplify chords
display chords
guitar tuner
Autoscroll
slow
fast
+/-
esc
set tempo
stop
Help us to improve Ultimate-Guitar.com Take our survey!
×
Author
Difficulty
novice
“Who I am” Guitar Chords
By Wade Bowen and West 84

Tuning:  EADGBe (normal)
Note:  I decided to put this online because while the version with a capo 
is close, the tonality is not right enough for me!  It is also the same 4 
chords for the whole song, and I get bored with it so I end up embellishing 
the picking and strumming patterns.  I am only play this with my acoustic 
and don’t have the benefit of doing the solo, so it's not here (sorry!).  
Also, just so you know, I tried to put the chords right over the words that 
the chord hits on so that it's easier to read the two.  Enjoy!

Intro (picked):
Asus2
|-----------------------------0----------------------------|
|---------------0--------------------------0---------------| 
|------------2--------2-------------2------------2---------| 
|--------2---------------2-------------2------------2------| 
|-----0-------------------------------------------------0--| 
|----------------------------------------------------------|

Fm
|---------------------2-----------------------------------|
|-----------2--------------------2------------------------|
|----------------2----------2---------2-------------------|
|--------4---------4--------4----------4------------------|
|-----4---------------------------------------------------|
|--2------------------------------------------------------|

Dsus2
|------------0--------------------0---------------------| 
|---------3-------3------------3-----3------------------| 
|------2-------------2-------2----------2---------------| 
|---0-------------------0-------------------0-----------| 
|-------------------------------------------------------| 
|-------------------------------------------------------|
Esus4	       	             E (strum beat 3)
|----------------------------0---------------------------|
|----------0-----------------0---------------------------|
|--------2-----2-------------1---------------------------|
|-----2----------2-----------2---------------------------|
|----------------------------2---------------------------|
|--0-------------------------0---------------------------|

Verse 1 (still picking)
  Asus2				 Fm
I love to watch the sunset as it fades behind the trees 
Dsus2			  Esus4	           E
Love to talk with God and get down upon my knees
  Asus2			         Fm
I love the times I spend with my family and friends
Dsus2			    Esus4	       E
Love to dream about all the places I've never been

Chorus (Strummed)
      Asus2				   Fm
And I love to watch you laugh and smile, I love to watch you dream 
Dsus2			   	      Esus4		 E
Love it when you take my hand just to let me know you believe in me 
      Asus2			     Fm
And I love it that you're my girl, I love that I'm your man 
Dsus2			     Esus4	  E
Now that you're in my life Baby I know exactly who I am 



Verse 2 (strummed)
        Asus2		          Fm
Well, I know I love the ladies, I love to go out at night 
  Dsus2				  Esus4	              E
I love it how we make up each and every time that we fight 
     Asus2		       Fm
Oh I love you oh so very much, love you more than words can say
Dsus2				        Esus4		   E
      And I don't know how or why but I love you more everyday 

Chorus 

Instrumental break (Same 4 chords once through – I don’t do the solo like
the band, but I do embellish the heck out of this part with strumming 
patterns and extra left hand notes – like turning the Dsus2 into a D chord 
with a hammer-on at times)

Chorus to end

Suggest correction
What's this?
You can suggest a correction to this tab. Community and Mods will review your correction and vote to approve or reject it.
comments
We did not receive enough feedback on this tab! Please rate:
print report bad tab
1 2 3 4 5
2 comments total.
0 reply
Aggieman 64 wrote on November 12 2015, 12:21 am

I'm pretty positive the Fm are supposed to be F#m

0 reply
ckellymaine 11 wrote on August 13 2016, 12:40 am

didn't like this contribution

guest
You may want to rate the tab now too:
select rating
Please do not post tabs as comments. Select "correction" instead!