Oops, an error
Loading. Please wait.

Twenty One tab

version 1
version 1

Whole song

Interactive

7,156 views 51 this week
8 commentsread comments
1 2 3 4 5
x 6
add to favorites
×
Save as Personal and add changes to this tab that will be seen only by you. Learn more ›
×
You can save this tab as Personal to edit and correct it or add notes. All changes will be seen only by you. Learn more »
launch autoscroll
font size
0
reset
how to read this tab
guitar tuner
edit
Autoscroll
slow
fast
+/-
esc
set tempo
stop
Wage War - Twenty One Drop A#

[INTRO/VERSE]
C -------------------------------------------------------------------------------------------------------|
G -------------------------------------------------------------------------------------------------x4----|
D# ------------------------------------------------------------------------------------------------------|
A# ---0---1--0---------------------------1----------0--1--0---------------1-----------------11/13--------|
F ----0---1--0-----3-----------5---------3----------0--1--0---5+5+5+5+-------------------9---------------|
A# ---0---1--0---------0---1------1--0---4---/-/----0--1--0------------------0---1----9------------------|
PM                                           . .                  


[PRE-CHORUS]
C |---------------------------------------------|---------------------------------------------|
G |---------------------------------------------|---------------------------------------------|
D#|---------------------------------------------|---------------------------------------------|
A#|-19p0h10h12-19p0h10h12-19p0h10h12-19p0h10h12-|-19p0h10h12-19p0h10h12-19p0h10h12-19p0h10h12-|
F |---------------------------------------------|---------------------------------------------|
A#|---------------------------------------------|---------------------------------------------|
     T          T          T          T            T          T          T          T

C |---------------------------------------------|---------------------------------------------|
G |---------------------------------------------|---------------------------------------------|
D#|---------------------------------------------|---------------------------------------------|
A#|-22p0h14h15-22p0h14h15-22p0h14h15-22p0h14h15-|-19p0h14h15-19p0h14h15-19p0h14h15-19p0h14h15-|
F |---------------------------------------------|---------------------------------------------|
A#|---------------------------------------------|---------------------------------------------|
     T          T          T          T            T          T          T          T
(Play all x2)


LEAD IN TO CHORUS
C --------------------------6~---------------------------------------------------------------------------|
G ------------------------------7~-----------------------------------------------------------------------|
D# -------8~-----8~--------------------------------------------------------------------------------------|
A# ---9~-----9~-----9~-----------------------------------------------------------------------------------|
F -------------------------------------------------------------------------------------------------------|
A# ------------------------------------------------------------------------------------------------------|


[CHORUS]
C --------------------6~---------------------------------------6~----------------------------------------|
G -------------------------7~--------------------------------------7~------------------------------------|
D# -----8~-----8~---------------x2-----------8~------8~------------------x2------------------------------|
A# --9~----9~-----9~----------------------8~------8~------8~---------------------------------------------|
F -------------------------------------------------------------------------------------------------------|
A# ------------------------------------------------------------------------------------------------------|
REPEAT WHOLE MEASURE THEN

C ------------------------6~------------------------6~---------------------------------------------------|
G ----------------------------7~-----------------------3~------------------------------------------------|
D# -------8~-----8~------------------x2--------4~-----------x3-------------------------------------------|
A# ---9~-----9~-----9~---------------------5~------------------------------------------------------------|
F -------------------------------------------------------------------------------------------------------|
A# ------------------------------------------------------------------------------------------------------|


[VERSE 2]
C -------------------------------10~---------------------------------------------------------------------|
G --------10~------10~------10~-------11~----------------------------------------------------------------|
D# --7~--------7~-------7~-------------------------------------------------------------------------------|
A# ------------------------------------------------------------------------------------------------------|
F -------------------------------------------------------------------------------------------------------|
A# ------------------------------------------------------------------------------------------------------|

C -------------------------------------------------------------------------------------------------------|
G -------------------------------------------------------------------------------------------------------|
D# ------------------------------------------------------------------------------------------------------|
A# ---0--------------------------------------------------------------------------------------------------|
F ----0--------------------------------------------------------------------------------------------------|
A# ---0--------------------------------------------------------------------------------------------------|
LISTEN FOR THE STRUM PATTERN THEN PLAY THE RIFF ABOVE OVER IT

C -------------------------------------------------------------------------------------------------------|
G -------------------------------------------------------------------------------------------------------|
D# ------------------------------------------------------------------------------------------------------|
A# ---------------12-------------------------------------------------------------------------------------|
F ----------------x-----------8--12-------------------------5--------------------------------------------|
A# ---10--12--0---10---8--12---------9p7p0---0-0-0-0--5--7-----7-----------------------------------------|

C -------------------------------------------------------------------------------------------------------|
G -------------------------------------------------------------------------------------------------------|
D# ------------------------------------------------------------------------------------10----------------|
A# --------14--15p14p0h10b--12h14h15------------------------------------------------11-------------------|
F ----12-----------------------------------------------5+5+5+5+--8p7p0------12---7-----------------------|
A# -------------------------------------0-0-0-0--12----------------------8-------------------------------|
PLAY TWICE THEN

C -------------------------------------------------------------------------------------------------------|
G -------------------------------------------------------------------------------------------------------|
D# ------------------------------------------------------------------------------------------------------|
A# -----------------------------------------------6--0---1--0--------------------------------------------|
F ------------------------------------------------6--0---1--0--------------------------------------------|
A# --0-0-0--0--0--0--0--0--0--0--0--0--0----------6--0---1--0--------------------------------------------|
PM   . . .     .     .     .     .     .

C -------------------------------------------------------------------------------------------------------|
G -------------------------------------------------------------------------------------------------------|
D# ------------------------------------------------------------------------------------------------------|
A# --------------------------------------6--0---1--0-------------1---------------------------------------|
F ---------------------------------------6--0---1--0-------------1---------------------------------------|
A# 0-0-0--0--0--0--0--0--0--0--0--0--0---6--0---1--0---0-0-0-0---1---------------------------------------|
PM . . .     .     .     .     .     .                 . . . .

C -------------------------------------------------------------------------------------------------------|
G -------------------------------------------------------------------------------------------------------|
D# ------------------------------------------------------------------------------------------------------|
A# ------------------------------------------------------------------------------------------------------|
F -------6----5-----4-----3-----2-----1-----------16-16--------------------------------------------------|
A# ---00---00----00---00----00----00------13-13----------11-11--15-15------------------------------------|
REPEAT LAST TWO MEASURES ONCE THEN PRECHORUS THEN

C -------------------------------------------------------------------------------------------------------|
G -------------------------------------------------------------------------------------------------------|
D# ------------------------------------------------------------------------------------------------------|
A# ----0-------------0-----1-----6--0-----------0-------0------------0-1--0------------------------------|
F -----0-------------0-----1-----6--0-----------0-------0------------0-1--0------------------------------|
A# ----0-0-0-0-0-0-0-0-0-0-1-0-0-6--0-0-0-0-0-0-0-0-0--0-0-0-0-0-0-0-0-1--0------------------------------|
PM        .  .  .  .   .      .  .  .      .  .   . .                                        
C -------------------------------------------------------------------------------------------------------|
G -------------------------------------------------------------------------------------------------------|
D# ------------------------------------------------------------------------------------------------------|
A# -----0--------0---1--0----------0--1---------0--1--6--1--0-----0--1--0-----0-0--------0-0-------------|
F ------0--------0---1--0----------0--1---------0--1--6--1--0-----0--1--0-----0-0--------0-0-------------|
A# -----0--------0---1--0----------0--1---------0--1--6--1--0-----0--1--0-----0-0-0-0-0-0-0-0-0-0--------|
PLAY CHORUS THEN

C -------------------------------------------------------------------------------------------------------|
G -------------------------------------------------------------------------------------------------------|
D# -----14-------------------------------------------------------------------------------------12--------|
A# -----x--------------------------------------------------------------------------------------x---------|
F ------12-------------------------------------------------------------------------------------10--------|
A# ------------------------------------------------------------------------------------------------------|
REPEAT ONCE THEN

C -------------------------------------------------------------------------------------------------------|
G -------------------------------------------------------------------------------------------------------|
D# ----14--------------------------------------------------------------------------------------12--------|
A# ----x---------------------------------------------------------------------------------------x---------|
F -----12--------------------------------------------------------------------------------------10--------|
A# ------------------------------------------------------------------------------------------------------|

C -------------------------------------------------------------------------------------------------------|
G -------------------------------------------------------------------------------------------------------|
D# ----14---------------------------------------------------------------------------------------17-------|
A# ----x----------------------------------------------------------------------------------------x--------|
F -----12---------------------------------------------------------------------------------------15-------|
A# ------------------------------------------------------------------------------------------------------|

PLAY THIS PART-----------------|      THEN FULL INTRO THEN  |--------------|
C -------------------------------------------------------------------------------------------------------|
G -------------------------------------------------------------------------------------------------------|
D# ------------------------------------------------------------------------------------------------------|
A# --------0--1--0---------------------------------------------0-1-0-------------------------------------|
F ---------0--1--0----3----------------------------------------0-1-0-------------------------------------|
A# --------0--1--0------0--1-----------------------------------0-1-0-------------------------------------|



************************************

| x  Dead note
| h  Hammer-on
| p  Pull-off
| b  Bend
| /  Slide up
| ~  Vibrato

************************************

            
            
Suggest correction
Creating personal tab
Creating personal tab
You can edit any tab online and save it as your Personal.

You can edit, replace or remove any tab part or add personal notes – all changes will be seen only by you.

Personal tabs can be accessed anytime from any device, even offline.
Learn more »
comments
print report bad tab
8 comments total. Showing first comments.
0 reply
unclenono304 20 Feb 15, 2016 10:49 AM

Thank!! I've been waiting for someone to tab this.. I've been watching the video of the guitar play-through but still had problems figuring some parts out. This tab is all I needed to get it all down. I really appreciate you taking the time to tab it out!

0 reply
colcol50 10 Feb 15, 2016 10:58 AM

more i fucking love this band

0 reply
jamescandelor 10 Feb 18, 2016 03:25 PM

Chorus is way off. Intro is alright but could be better

guest
You may want to rate the tab now too:
select rating
Wanna post a correction for this tab? Suggest correction