Oops, an error
Loading. Please wait.

Gold Tab

version 1
version 1

Whole song

16,308 views 27 this week
5 commentsread comments
1 2 3 4 5
x 9
add to favorites
launch autoscroll
font size
0
reset
how to read this tab
guitar tuner
Autoscroll
slow
fast
+/-
esc
set tempo
stop
Help us to improve Ultimate-Guitar.com Take our survey!
×
Author
Difficulty
novice
Wake! Owl - Gold
From: Wild Country(Ep)

Band Website: www.wakeowl.com

Tabbed by Mark Sheridan. (This is my first tab)

-Intro [Guitar 1]
e|-------------------------------------------------------------------|
B|------7-----7---7-----7-----7---7-----7-----7---7-----7-----7---7--|
G|----7-----7---------7-----7---------7-----7---------7-----7--------|
D|--9-----9-----9---9-----9-----9---7-----7-----7---7-----7-----7----|
A|-------------------------------------------------------------------|
E|-------------------------------------------------------------------|


-Verse Riff:[Guitar 1] (Played through twice before the singing starts. Verse 1 + 2)
e|-------------------------------------------------------------------|
B|------7-----7---7-----7-----7---7-----7-----7---7-----7-----7---7--|
G|----7-----7---------7-----7---------7-----7---------7-----7--------|
D|--9-----9-----9---9-----9-----9---7-----7-----7---7-----7-----7----|
A|-------------------------------------------------------------------|
E|-------------------------------------------------------------------|


e|-----------------------------------------------------------------------------|
B|-------10------10----10------10------10----10-----7-----7---7-----7-----7---7|
G|-----9-------9-------------9-------9------------7-----7---------7-----7------|
D|--12------12------12----12------12------12----9-----9-----9---9-----9-----9--|
A|-----------------------------------------------------------------------------|
E|-----------------------------------------------------------------------------|



-Verse Strumming [Guitar 2] (Strumming lightly, while Guitar 1 continues what it is playing.) 
e|----------------5------------|
B|--7------7------5------7-----|
G|--7------7------7------7-----|
D|--9------7-------------9-----|
A|-----------------------------|
E|-----------------------------|

-This is played when the 'oooooo' happens after the first verse. Does not play 
over the 2nd 'oooooo'


-Verse 1
Bm                     D            G               Bm
So, didn't you find love or salvation in what they do
Bm                     D                          G                    
a heart is built of gold, they fairies they are too, its in the hands you
  Bm 
hold
Bm                   D                       G                           Bm
how long can we ignore, we build a little more, and then we break our truth


Bm                     D               G               Bm
'ooooooooooooooooooooo'  *no singing*  'ooooooooooooooo'   X2

-Chorus
G                     D            A               Bm
I don't feel like I'm falling, I'm up against the sky
G                      D      A               Bm
I said I'd taken it all in to make the good life
G                     D            A               Bm
I don't feel like I'm falling, I'm up against the sky
G                               D      A               Bm      G(Strummed a little before
let's grab the heart of the world and turn into the light         the verse satarts again)


-Verse 2
But I cannot turn around, the angels hear me now, go where i'm bound,
you smile like you know the new world has been found

'oooooo' 

-Chorus
I don't feel like I'm falling, I'm up against the sky,
I said I'd taken it all in to make the good life,
I don't feel like I'm falling, I'm up against the sky,
let's grab the heart of the world and turn into the light
I don't feel like I'm falling, I'm up against the sky,
let's grab the heart of the world and turn into the light
Suggest correction
comments
print report bad tab
5 comments total. Showing first comments.
0 reply
TheBos 10 May 20, 2012 04:25 PM

it sounds good except im not sure the G is correct in some places, also, instead of the riffs I think you can just pluck the G, B, e strings

0 reply
lucasaloysius 31 Feb 18, 2013 09:19 PM

This may sound fine the way you like to play it, but it isn't the way he plays it. He plays it with a capo on the 2nd fret.

The intro and verse (basic riff - there is a slight variation but I won't type it out here since for whatever the f*ck reason my tabs get denied despite 90% of the tabs on this damn site being completely inaccurate):

e|----0----0-----| |----0-----0----| |-----3-----3-----|
B|---1---1----1--| X 2 |==-1----1----1-| X 2 |---3-----3----3--| X2
G|-2----2---2----] |-0----0-----0--| |-0-----0----0----|
D|---------------| |---------------| |-----------------|
A|---------------| |---------------| |-----------------|
E|---------------| |---------------| |-----------------|

The pre-chorus:

F Am G F, repeat

Chorus:

F Am G Am, repeat

He typically plays the F chords barred, but often he will play a C-shaped F chord during the chorus.

Here are two (not very great) videos bearing witness to how he plays the song:
http://www.youtube.com/watch?v=ACNS5QPx26w

http://www.youtube.com/watch?v=6pVheOKofV4

0 reply
lucasaloysius 31 Feb 18, 2013 09:22 PM

**Here is the tab from above (it was reformatted once I submitted it).

>> Each part repeats twice (again, there is a variation that I won't type out and the capo is on the 2nd fret)

e|----0----0-----| |----0-----0----| |-----3-----3-----|
B|---1---1----1--| |==-1----1----1-| |---3-----3----3--|
G|-2----2---2----] |-0----0-----0--| |-0-----0----0----|
D|---------------| |---------------| |-----------------|
A|---------------| |---------------| |-----------------|
E|---------------| |---------------| |-----------------|

guest
You may want to rate the tab now too:
select rating
Wanna post a correction for this tab? Suggest correction