Oops, an error
Loading. Please wait.

Handful Of Names Tab

151 views 1 this week
no commentswrite comment
1 2 3 4 5
3 more votes to show rating
add to favorites
launch autoscroll
font size
0
reset
how to read this tab
guitar tuner
Autoscroll
slow
fast
+/-
esc
set tempo
stop
Help us to improve Ultimate-Guitar.com Take our survey!
×
Author
Difficulty
Song: Handful of Names
Band: Waking Ashland
Album: The Well (2007)

Tabbed by: Fred Hatfull
Email: lurkingfridge79 (at) gmail (dot) com

Tuning: Standard (EADGBe)

Notes: This is a great, simple song. I've not taken the time to tab a lot of the quiet 
(such as the intro) or other parts that take a secondary role to

the piano. I would enjoy some input on this and some assistance, but only if it's 
by the community. Also, I feel the verse could use some input

because I'm not sure it's 100% correct. The basics are there though. Enjoy!

Amp settings (if desired): I find it's best to play this song with your drive set to 
up a little bit when you strike the strings hard, but otherwise

pretty smooth on the quieter parts. Minimal distortion.


[Intro] (Piano/chimes effect)

[Verse]

 G5                              C5
-|-------------------------------|-------------------------------|
-|-------|-------|-------|-------|-------|-------|-------|-------|
-----------------------------------------------------------------|
-----------------------------------------------------------------|
-----------------------------------------------------------------|
-----------------------------------------------------------------|
-5---5---5---5---5---5---5---5-/-10--10--10--10--10--10--10--10--|
-3---3---3---3---3---3---3---3-/-8---8---8---8---8---8---8---8---|
 Handful of names                                        Gonna

 G5                              C5
-----------------------------------------------------------------|
-----------------------------------------------------------------|
-----------------------------------------------------------------|
-----------------------------------------------------------------|
-5---5---5---5---5---5---5---5-/-10--10--10--10--10--10--10--10--|
-3---3---3---3---3---3---3---3-/-8---8---8---8---8---8---8---8---|
 Put em someplace safe                                       So

 G5                              C5
-----------------------------------------------------------------|
-----------------------------------------------------------------|
-----------------------------------------------------------------|
-----------------------------------------------------------------|
-5---5---5---5---5---5---5---5-/-10--10--10--10--10--10--10--10--|
-3---3---3---3---3---3---3---3-/-8---8---8---8---8---8---8---8---|
 I don't have to face another day    Yeah

 Been running on the side
 It does not feel right
 Cause I don't have the right to take it away, yeah

[Pre-Chorus] (Piano/chimes effect)

Over and over and over again, yeah again

[Chorus] (Listen to recording for exact rhythm - this is only approximate)

 G                               D               C9
 |               |               |               |
-|---|---|---|---|---|---|---|---|---|---|---|---|---|---|---|---|
-3---------3---3-----------3-3-3-2---------2-2-2-3-3-3-3-3-3-3-3-|
-3---------3---3-----------3-3-3-3---------3-3-3-3-3-3-3-3-3-3-3-|
-0---------0---0-----------0-0-0-2---------2-2-2-0-0-0-0-0-0-0-0-|
-0---------0---0-----------0-0-0-0---------0-0-0-2-2-2-2-2-2-2-2-|
-2---------2---2-----------2-2-2-----------------3-3-3-3-3-3-3-3-|
-3---------3---3-----------3-3-3---------------------------------|
 These are the things that I Want you to hear...         (funny rhythm, consult recording)

 G                               D               C9
-3---------3---3-----------3-3-3-2---------2-2-2-3-3-3-3-3-3-3-3-|
-3---------3---3-----------3-3-3-3---------3-3-3-3-3-3-3-3-3-3-3-|
-0---------0---0-----------0-0-0-2---------2-2-2-0-0-0-0-0-0-0-0-|
-0---------0---0-----------0-0-0-0---------0-0-0-2-2-2-2-2-2-2-2-|
-2---------2---2-----------2-2-2-----------------3-3-3-3-3-3-3-3-|
-3---------3---3-----------3-3-3---------------------------------|
 The time is now          The place is here                   and

 G                               D               C9
-3-3-3-3-3-3-3-3-3-3-3-3-3-3-3-3-2-2-2-2-2-2-2-2-3-3-3-3-3-3-3-3-|
-3-3-3-3-3-3-3-3-3-3-3-3-3-3-3-3-3-3-3-3-3-3-3-3-3-3-3-3-3-3-3-3-|
-0-0-0-0-0-0-0-0-0-0-0-0-0-0-0-0-2-2-2-2-2-2-2-2-0-0-0-0-0-0-0-0-|
-0-0-0-0-0-0-0-0-0-0-0-0-0-0-0-0-0-0-0-0-0-0-0-0-2-2-2-2-2-2-2-2-|
-2-2-2-2-2-2-2-2-2-2-2-2-2-2-2-2-----------------3-3-3-3-3-3-3-3-|
-3-3-3-3-3-3-3-3-3-3-3-3-3-3-3-3---------------------------------|
 The song that we wanted was sung by the free...

 G                               D               C9
-3-3-3-3-3-3-3-3-3-3-3-3-3-3-3-3-2-2-2-2-2-2-2-2-3-3-3-3-3-3-3-3-|
-3-3-3-3-3-3-3-3-3-3-3-3-3-3-3-3-3-3-3-3-3-3-3-3-3-3-3-3-3-3-3-3-|
-0-0-0-0-0-0-0-0-0-0-0-0-0-0-0-0-2-2-2-2-2-2-2-2-0-0-0-0-0-0-0-0-|
-0-0-0-0-0-0-0-0-0-0-0-0-0-0-0-0-0-0-0-0-0-0-0-0-2-2-2-2-2-2-2-2-|
-2-2-2-2-2-2-2-2-2-2-2-2-2-2-2-2-----------------3-3-3-3-3-3-3-3-|
-3-3-3-3-3-3-3-3-3-3-3-3-3-3-3-3---------------------------------|
 The time is now   so sing it for me

 A               Am
-----------------------------------------------------------------|
-2---------------1-X---------------------------------------------|
-2---------------2-X---------------------------------------------|
-2---------------2-X---------------------------------------------|
-0---------------0-X---------------------------------------------|
-----------------------------------------------------------------|

[Post Chorus 1]

 G                               C9
-3-3-3-3-3-3-3-3-3-3-3-3-3-3-3-3-3-3-3-3-3-3-3-3-3-3-3-3-3-3-3-3-|
-3-3-3-3-3-3-3-3-3-3-3-3-3-3-3-3-3-3-3-3-3-3-3-3-3-3-3-3-3-3-3-3-|
-0-0-0-0-0-0-0-0-0-0-0-0-0-0-0-0-0-0-0-0-0-0-0-0-0-0-0-0-0-0-0-0-|
-0-0-0-0-0-0-0-0-0-0-0-0-0-0-0-0-2-2-2-2-2-2-2-2-2-2-2-2-2-2-2-2-|
-2-2-2-2-2-2-2-2-2-2-2-2-2-2-2-2-3-3-3-3-3-3-3-3-3-3-3-3-3-3-3-3-|
-3-3-3-3-3-3-3-3-3-3-3-3-3-3-3-3---------------------------------|
                                     Doo doo doo Doo doo doo...

 G                               C9
-3-3-3-3-3-3-3-3-3-3-3-3-3-3-3-3-3-3-3-3-3-3-3-3-3-3-3-3-3-3-3-3-|
-3-3-3-3-3-3-3-3-3-3-3-3-3-3-3-3-3-3-3-3-3-3-3-3-3-3-3-3-3-3-3-3-|
-0-0-0-0-0-0-0-0-0-0-0-0-0-0-0-0-0-0-0-0-0-0-0-0-0-0-0-0-0-0-0-0-|
-0-0-0-0-0-0-0-0-0-0-0-0-0-0-0-0-2-2-2-2-2-2-2-2-2-2-2-2-2-2-2-2-|
-2-2-2-2-2-2-2-2-2-2-2-2-2-2-2-2-3-3-3-3-3-3-3-3-3-3-3-3-3-3-3-3-|
-3-3-3-3-3-3-3-3-3-3-3-3-3-3-3-3---------------------------------|
                                     Doo doo doo Doo doo doo...

[Verse]

From the moment I'm awake
I think about the states
And whether I should just go back to sleep instead, yeah
A reasonless mind
And at that place and time
I started learning how it feels to be alone, yeah

[Pre-Chorus]

Over and over and over again, yeah again

[Chorus]

And these are the things that I want you to hear
Throw away thought and replace it with fear
The time is now
The place is here
And the song that we wanted was sung by the free
The newspaper headlines but no melody
The time is now, to sing it for me

 A               Am
-----------------------------------------------------------------|
-2-2-2-2-2-2-2-2-1-1-1-1-1-1-1-1---------------------------------|
-2-2-2-2-2-2-2-2-2-2-2-2-2-2-2-2---------------------------------|
-2-2-2-2-2-2-2-2-2-2-2-2-2-2-2-2---------------------------------|
-0-0-0-0-0-0-0-0-0-0-0-0-0-0-0-0---------------------------------|
-----------------------------------------------------------------|
Better get it right...

[Post Chorus 2]

 E               C               D               B
-----------------------------------------------------------------|
-----------------------------------------------------------------|
-9---9---9---9---5---5---5---5---7---7---7---7---4---4---4---4---|
-9---9---9---9---5---5---5---5---7---7---7---7---4---4---4---4---|
-7---7---7---7---3---3---3---3---5---5---5---5---2---2---2---2---|
-----------------------------------------------------------------|
 I               know            Someday when we get old   we can

 E               C               D               B
-----------------------------------------------------------------|
-----------------------------------------------------------------|
-9---9---9---9---5---5---5---5---7-7-7-7-7-7-7-7-4-4-4-4-4-4-4-4-|
-9---9---9---9---5---5---5---5---7-7-7-7-7-7-7-7-4-4-4-4-4-4-4-4-|
-7---7---7---7---3---3---3---3---5-5-5-5-5-5-5-5-2-2-2-2-2-2-2-2-|
-----------------------------------------------------------------|
 Talk            about           the day that I came home________

[Bridge]

 G                               D               C9
-3---------3---3-----------3-3-3-2---------2-2-2-3-3-3-3-3-3-3-3-|
-3---------3---3-----------3-3-3-3---------3-3-3-3-3-3-3-3-3-3-3-|
-0---------0---0-----------0-0-0-2---------2-2-2-0-0-0-0-0-0-0-0-|
-0---------0---0-----------0-0-0-0---------0-0-0-2-2-2-2-2-2-2-2-|
-2---------2---2-----------2-2-2-----------------3-3-3-3-3-3-3-3-|
-3---------3---3-----------3-3-3---------------------------------|

[Chorus]
And these are the things that I want you to hear
Throw away thought and replace it with fear
The time is now
The place is here
And the song that we wanted was sung by the free
The newspaper headlines but no melody
The time is now, so sing it for me

 A               Am              G
---------------------------------3-------------------------------|
-2-2-2-2-2-2-2-2-1---------------3-------------------------------|
-2-2-2-2-2-2-2-2-2---------------0-------------------------------|
-2-2-2-2-2-2-2-2-2---------------0-------------------------------|
-0-0-0-0-0-0-0-0-0---------------2-------------------------------|
---------------------------------3-------------------------------|
Better get it right cause you can't start over


Enjoy! This song is pretty easy and it's great to play if you're looking for some happy chords.

This was fairly easy to tab, but I would still enjoy some feedback as it's my first tab. 
you think something is wrong, have a question, want to add some

bits you figured out, or just enjoyed/found this tab useful, by all means, LET ME KNOW! 
send me an email at the address listed above. Thanks!
Suggest correction
Give kudos to tab author, rate the tab!
1 2 3 4 5
comments
print report bad tab
guest
You may want to rate the tab now too:
select rating
Wanna post a correction for this tab? Suggest correction