Oops, an error
Loading. Please wait.

I Am For You Tab

version 1
version 1

Intro

Whole song

1,374 views 1 this week
2 commentsread comments
1 2 3 4 5
please rate
add to favorites
launch autoscroll
font size
0
reset
how to read this tab
guitar tuner
Autoscroll
slow
fast
+/-
esc
set tempo
stop
Help us to improve Ultimate-Guitar.com Take our survey!
×
-------------------------------------------------------------------------------
                             I Am For You - Waking Ashland
-------------------------------------------------------------------------------
Tabbed by: David Wicks
Email: Jesusfreak0273@socal.rr.com

This is my first tab, but I prety sure its right.  I love this band, and no one had
anything tabs, so im taking matters in my own hands. Figure out the timming by yourself,
if you have any questions email me.

Tuning: Standard

e|------------------------------------------------------------11--10---11----|
B|------------11-------------------------------11----------------------------|
G|---------------------------------------------------------------------------|
D|10-----13---------13-13-------10-----13------------13----------------------|
A|---------------------------------------------------------------------------|
E|---------------------------------------------------------------------------|




| /  slide up
| \  slide down
| h  hammer-on
| p  pull-off
| ~  vibrato
| +  harmonic
| x  Mute note
===============================================================================
Suggest correction
Give kudos to tab author, rate the tab!
1 2 3 4 5
comments
print report bad tab
2 comments total.
0 reply
SoulsStrife 10 wrote on October 29 2005, 06:58 pm

sounds good to me but change the very last part its like this
E|--11-10--------
B|--------11-----

0 reply
RiRaY 1,372 wrote on October 30 2005, 09:38 pm

yup what he said

guest
You may want to rate the tab now too:
select rating
Wanna post a correction for this tab? Suggest correction