Oops, an error
Loading. Please wait.

October Skies Bass Tab

244 views 1 this week
no commentswrite comment
1 2 3 4 5
please rate
add to favorites
launch autoscroll
font size
0
reset
guitar tuner
Autoscroll
slow
fast
+/-
esc
set tempo
stop
Help us to improve Ultimate-Guitar.com Take our survey!
×
Author
Difficulty
novice
Artist: Waking Ashland
Song: October Skies
Album: Composure
Tabbed by: Kmilongo (kmilo1989@gmail.com)
Tuning: Standard 4-string (GDAE)

Verse (Bass starts at 0:04)

G|---------------------------------|
D|-----------------0(x16)----------|
A|------------------------3(x14)-22|
E|3(x14)-22-0(x16)-----------------|

G|------------------------------------------|
D|----------------2(x8)-0(x16)--------------|
A|-----------------------------3(x10)-2-3333|
E|3(x14)-22-0(x8)---------------------------|

G|-----------------------------------|
D|----------------2(x8)-0(x16)-------|
A|-----------------------------3(x16)|
E|3(x14)-22-0(x8)--------------------|

Chorus (0:52)

G|----------------------------------------------------------------|
D|----------------------------------------------------------------|
A|----------------22-22-22-22-2222----------------33-33-33-33-3333|
E|33-33-33-33-3333----------------00-00-00-00-0000----------------|

Verse (1:08)

G|---------------------------------|
D|-----------------0(x16)----------|
A|------------------------3(x14)-22|
E|3(x14)-22-0(x16)-----------------|

G|-----------------------------------|
D|----------------2(x8)-0(x16)-------|
A|-----------------------------3(x16)|
E|3(x14)-22-0(x8)--------------------|

G|-----------------------------------|
D|----------------2(x8)-0(x16)-------|
A|-----------------------------3(x16)|
E|3(x14)-22-0(x8)--------------------|

Chorus (1:57)

G|----------------------------------------------------------------|
D|----------------------------------------------------------------|
A|----------------22-22-22-22-2222----------------33-33-33-33-3333|
E|33-33-33-33-3333----------------00-00-00-00-0000----------------|

G|----------------------------------------------------------------|
D|----------------------------------------------------------------|
A|----------------22-22-22-22-2222----------------33-33-33~33~3-33|
E|33-33-33-33-3333----------------00-00-00-00-0000-------------0--|

Bridge (2:29)

G|----------------------------------|
D|00000000-22222222-----------------|
A|------------------3~23332333233323|
E|----------------------------------|

G|----------------------------------|
D|00000000-22222222-----------------|
A|------------------3333333333333333|
E|----------------------------------|

Chorus (2:45)

G|---------------------------|
D|---------------------------|
A|-------2(x16)--------3(x16)|
E|3(x16)--------0(x16)-------|

Interlude (3:01)

G|--------|
D|--------|
A|--2~--3~|
E|3~--0~--| (x2)

G|-------------------|
D|-------------------|
A|3-3-3-3-3-3-3-3-3-3|
E|-------------------|

Chorus (3:33)

G|----------------------------------------------------------------|
D|----------------------------------------------------------------|
A|----------------22-22-22-22-2222----------------33-33-33-33-3333|
E|33-33-33-33-3333----------------00-00-00-00-0000----------------|

G|---------------------------------------------------------|
D|---------------------------------------------------------|
A|----------------22-22-22-22-2222----------------33-33-33~|
E|33-33-33-33-3333----------------00-00-00-00-0000---------|

Song ends with (4:08)
E|3~|
Suggest correction
Give kudos to tab author, rate the tab!
1 2 3 4 5
comments
print report bad tab
guest
You may want to rate the tab now too:
select rating
Wanna post a correction for this tab? Suggest correction