Oops, an error
Loading. Please wait.

Blood Splattered Satisfaction Bass Tab

version 1
version 1

Whole song

Interactive

2,504 views 3 this week
no commentswrite comment
1 2 3 4 5
please rate
add to favorites
launch autoscroll
font size
0
reset
guitar tuner
Autoscroll
slow
fast
+/-
esc
set tempo
stop
Help us to improve Ultimate-Guitar.com Take our survey!
×
Author
Waking The Cadaver - Blood Splattered Satisfaction

Not very hard really. Figuring it out for 5-String was harder than playing it.

I used Satan Man's detuned 4-string bass tab (thanks for that one) to figure this out 
I didn't want to damage the strings for my new Warwick! Thought I'd share it.

(Sorry if I have completely screwed "translating" it but I think it's right)

If you're a real bassist you'll play this with your fingers not a pick.


Tuning: BEADG

Riff 1
G|-----------------------------------------|
D|-----------------------------------------|
A|-----------------------------------------|
E|---4-1-3-1-------------4-1-3-1-----------|
B|-1---------4-3-4-3-4-1---------4-3-4-3-4-|
   .                   .           . . . .
Riff 2
G|---------------------|    |---|
D|---------------------|    |---|
A|---------------------| 4X |---|
E|---4-1-3-1-----------|    |---|
B|-1---------4-3-4-3-4-|    |-1-|
   .                          .
Riff 3 x2
G|-----------------------------------------------------|
D|-----------------------------------------------------|
A|-----22222222-----22222222-----11111111-----11111111-|
E|-----------------------------------------------------|
B|-2-1----------2-1----------2-1----------2-1----------|
     .            .            .            .

Riff 4 x4
G|---------------------------------------------------|
D|---------------------------------------------------|
A|------5555-4444------------------------------------|
E|----------------3333-2222--------------------------|
B|-4444---------------------6666-4444-6666-4444-6666-|
   .... .... .... .... .... .... .... .... .... ....

Riff 5
G|-----------------------|
D|---4-3-----------------|
A|-------3-2-------------|
E|-3---------6-4-6-4-6---|
B|-----------------------|

Riff 6
G|---------|
D|---------|
A|---------|
E|---------|
B|-4-2-1-1-|
       . .

Riff 7 x12
G|-----------------|
D|-----------------|
A|-----------------|
E|-----------------|
B|-111-111-111-111-|
   ... ... ... ...

Riff 8 x4
G|---------------|---------------------|
D|---------------|-----------------5-4-|
A|---------------|-------------3-6-----|
E|---------------|---------------------|
B|-11111-11111---|-11111-11111---------|
   ..... .....     ..... .....

Riff 9 x4
G|---------------------|
D|---------------------|
A|-----------------1-0-|
E|-------------4-------|
B|-11111-11111---0-----|
   ..... .....
Suggest correction new What's this?
You can suggest a correction to this tab. Community and Mods will review your correction and vote to approve or reject it.
comments
We did not receive enough feedback on this tab! Please rate:
print report bad tab
1 2 3 4 5
guest
You may want to rate the tab now too:
select rating
Please do not post tabs as comments. Select "correction" instead!