Oops, an error
Loading. Please wait.

Bloodsplattered Satisfaction Tab

version 1
version 1

Whole song

Interactive

3,086 views 4 this week
3 commentsread comments
1 2 3 4 5
accurate
x 3
add to favorites
launch autoscroll
font size
0
reset
how to read this tab
guitar tuner
Tab Pro tools
  • play this tab
  • loop segment
  • change instrument
  • show fretboard
  • metronome
×
Best way to learn
"Bloodsplattered Satisfaction"
Autoscroll
slow
fast
+/-
esc
set tempo
stop
Contributor
Difficulty
novice
COULDN'T FIND THIS TAB SO I TABBED IT

THIS IS MY FIRST TAB, HOPE IT'S RIGHT

TUNING IS AT DROP C

D
A
F
C
D
C

INTRO
D -----------------------------------------|
A -----------------------------------------|
F -----------------------------------------|
C -----------------------------------------|X4
D -----------------------------------------|
C -0000888877775555777755553333555522223333
PM ........................................

D ---------------------------   -----|
A ---------------------------   -----|
F ---------------------------   -----|ON FOURTH
C -0--8--7--5--7--5--3-5-2-3-X4 --0--|TIME
D -0--8--7--5--7--5--3-5-2-3-   --0--|
C -0--8--7--5--7--5--3-5-2-3-   --0--|
PM .  .  .  .  .  .  . . . .      .

D ---------------------------------|
A ---------------------------------|
F ---------------------------------|
C -0---8---7---5---7---5---3-5-2-3-|X4
D -0---8---7---5---7---5---3-5-2-3-|
C -0---8---7---5---7---5---3-5-2-3-|
PM .   .   .   .   .   .   . . . .

D ----------------------|
A ----------------------|
F -----77777-----66666--|
C -0-0-XXXXX-0-0-XXXXX--|X2
D -0-0-55555-0-0-44444--|
C -0-0-------0-0--------|
PM . .       . .

D -----------------------------------------|
A -----------------------------------------|
F -----------------------------------------|
C -----------------------------------------|X2
D -----------------------------------------|
C -0000888877775555777755553333555522223333
PM ........................................

GUITAR 1
D -----------------------------------------    --------------|
A -----------------------------------------    --------------|FOLLOW AFTER
F -----------------------------------------    --------------|2ND TIME
C -----------------------------------------X2  --5--3--2--0--|
D -----------------------------------------    --5--3--2--0--|
C -0000888877775555777755553333555522223333    --5--3--2--0--|
PM ........................................      .  .  .

GUITAR 2 (FOLLOWING GUITAR 1)
D ----------------------------------------------   --------------|
A ----------------------------------------------   --------------|FOLLOW
F ----------------------------------------------   --------------|AFTER 2ND
C -00001010101099997777999977775555777744445555-X2 --5--3--2--0--|TIME
D ----------------------------------------------   --5--3--2--0--|
C ----------------------------------------------   --5--3--2--0--|
PM ............................................      .  .  .

D -----------------|
A -----------------|
F -----------------|
C -000-000-000-000-|X4
D -000-000-000-000-|
C -000-000-000-000-|
PM ... ... ... ...

D -----------------------------|
A -----------------------------|
F -----------------------------|
C -----------------------------|
D -000-000-000-000--------5-5*-|
C -000-000-000-000-000000------|

D -----------------------------|
A -----------------------------|
F -----------------------------|
C -----------------------------|
D -000-000-000-000--------4-4*-|
C -000-000-000-000-000000------|

D -----------------------------|
A -----------------------------|
F -----------------------------|
C -----------------------------|
D -000-000-000-000--------3-3*-|
C -000-000-000-000-000000------|

D ------------------------------|
A ------------------------------|
F ------------------------------|
C ------------------------------|
D -000-000-000-000--------2b-2*-|
C -000-000-000-000-000000-------|

D ------------------|
A -------------LET--|
F -------------RING-|
C -000-000-000-000--|X4
D -000-000-000-000--|
C -000-000-000-000--|

D -------------|
A -------------|
F -------------|
C -00000-00000-|
D -00000-00000-|
C -00000-00000-|

D -------------------------------|
A -------------------------------|
F -------------------------------|
C -00000-00000---------77776666--|X4
D -00000-00000-55558888----------|
C -00000-00000-------------------|


D -------------------------------|
A -------------------------------|
F -------------------------------|REPEAT UNTIL
C -00000-00000---------77776666--|THE END
D -00000-00000-55558888----------|
C -00000-00000-------------------|

PM=PALM MUTE
*=PINCH/HARMONIC
b=BEND

THAT'S IT, HOPE YOU LIKE IT
comments
We did not receive enough feedback on this tab! Please rate:
print report bad tab
1 2 3 4 5
3 comments total.
0 reply
Zedzeppelin@1 wrote on September 23 2006, 02:55 pm

Ya the whole song is pretty welled down but the proper drop C tuning is C-G-C-F-A-D

0 reply
metalhead77 wrote on December 24 2006, 12:57 pm

some parts are a bit wrong but over all pretty good.

0 reply
guitarfreak7542 wrote on June 8 2009, 09:42 pm

Pretty nice tab for your first

I want to post or [tab]
guest
You may want to rate the tab now too:
select rating
Please do not post tabs as comments. Select "correction" instead!