Oops, an error
Loading. Please wait.

Chased Through The Woods Tab

version 3
version 3

Whole song

Interactive

2,405 views 1 this week
no commentswrite comment
1 2 3 4 5
please rate
add to favorites
launch autoscroll
font size
0
reset
how to read this tab
guitar tuner
Autoscroll
slow
fast
+/-
esc
set tempo
stop
Help us to improve Ultimate-Guitar.com Take our survey!
×
Author
Difficulty
Tuning
novice
C G C F A D
waking the cadaver
chased through the woods by a rapist
jordan palmer

|---------------------------------------------------|
|---------------------------------------------------|
|---------------------------------------------------|
|-0-0-0-----000-0-0-0-----000-0-0-0-----000-0-0-0---|
|-0-0-0-----000-0-0-0-----000-0-0-0-----000-0-0-0---|
|-0-0-0-----000-0-0-0-----000-0-0-0-----000-0-0-0---|
  . . .     ... . . .     ... . . .     ... . . . 

    
|--------------------------------------|
|--------------------------------------|
|--------------------------------------|
|--------------------------------------|  
|------114433333333-------11443333-----|
|--3333---------------3333--------4444-|
tremolo picked.

      
|------------------------------------|
|------------------------------------|
|------------------------------------|
|-0-00001--0----00001----------------|      
|-0-00001--0----00001----------------|
|-0-00001--0----00001----------------|
  . .....  .    .....      

    
|------------------------------------|
|------------------------------------|
|------------------------------------|
|-0--111110---00001111---------------|     
|-0--111110---00001111---------------|
|-0--111110---00001111---------------|
  .  ......   ........



|--------------------|
|--------------------|
|--------------------|
|--------------------|    
|-----2211-----------|
|-0033---------------|
tremolo picked.

      
|------------------------------------|
|------------------------------------|
|------------------------------------|
|-0-1-3---------1-3-1-3-1-3----------|    
|-0-1-3--5*-----1-3-1-3-1-3----------|     
|-0-1-3---------1-3-1-3-1-3--3*------| 

* pinch harmonic   
Suggest correction
Give kudos to tab author, rate the tab!
1 2 3 4 5
comments
print report bad tab
guest
You may want to rate the tab now too:
select rating
Please do not post tabs as comments. Select "correction" instead!