Oops, an error
Loading. Please wait.

Fire In My Soul chords

289 views 51 this week
no commentswrite comment
1 2 3 4 5
2 more votes to show rating
add to favorites
×
Save as Personal and add changes to this tab that will be seen only by you. Learn more ›
×
You can save this tab as Personal to edit and correct it or add notes. All changes will be seen only by you. Learn more »
launch autoscroll
font size
0
reset
transpose
0
reset
simplify chords
display chords
guitar tuner
edit
Autoscroll
slow
fast
+/-
esc
set tempo
stop
Strumming
There is no strumming pattern for this song yet. and get +5 IQ
Walk Off The Earth - Fire In My Soul

Note: Single strum unless otherwise noted

Tab Legend:
h = hammer on
p = pull off
PM = palm mute
N.C. = no chords

[Intro]
(PM)Asus    Cadd9         G     F         Asus    Cadd9(PM)
 e|-3h5-3h5-3h5p3---3-5---------------------------------------|
 B|---------------5-----------------------3h5-3h5-3h5p3---3-5-|
 G|-----------------------7-7-5h7p5---5-7---------------5-----|
 D|---------------------------------7-------------------------|
 A|-----------------------------------------------------------|
 E|-----------------------------------------------------------|

N.C.
I GOT THAT FIRE IN MY SOUL!

[Verse 1]
Asus        Cadd9
 Locked and loaded
G G       F
  Don't I know it
Asus    Cadd9       G G      F (ring out)
 Oh the moment is right to ignite, let's get going
Asus     Cadd9
 I'm not waiting
G G   F
  Hesitating
F (ring out)   G
 So tonight we roll
          Asus
I GOT THAT FIRE IN MY SOUL!

[Prechorus]
Asus     Cadd9              G G F
 Hey, no stop drop and roll
                Asus   Cadd9                 G G F
Let's let this, mother burn out of control
              Asus       Cadd9             G  G  F
Don't need no timber for stoking the coals
             F                  G
I'll get this fire higher
          Asus
I GOT THAT FIRE IN MY SOUL!

[Chorus](strum)
Asus Cadd9 G F
Heeeeeeeeeeeeey
             Asus  Cadd9
I'll get this fire higher
G           F
  I GOT THAT FIRE IN MY SOUL!
Asus Cadd9 G F
Heeeeeeeeeeeeey
             Asus (ring out)
I'll get this fire higher
G           F
  I GOT THAT FIRE IN MY SOUL!

[Interlude]
(PM)Asus    Cadd9         G     F         Asus    Cadd9       G     F
 e|-3h5-3h5-3h5p3---3-5-------------------------------------------------------|
 B|---------------5-----------------------3h5-3h5-3h5p3---3-5-----------------|
 G|-----------------------7-7-5h7p5---5-7---------------5-----7-7-5h7-5h7p5---|
 D|---------------------------------7---------------------------------------7-|
 A|---------------------------------------------------------------------------|
 E|---------------------------------------------------------------------------|
                                        Fire!
(PM)Asus    Cadd9         G     F         Asus                G     F (ring out)
 e|-3h5-3h5-3h5p3---3-5-------------------------------------------------------|
 B|---------------5-----------------------3h5-3h5-3h5p3---3-5-----------------|
 G|-----------------------7-7-5h7p5---5-7---------------5-----7-7-5h7-5h7p5---|
 D|---------------------------------7---------------------------------------7-|
 A|---------------------------------------------------------------------------|
 E|---------------------------------------------------------------------------|
                                                          I GOT THAT FIRE IN MY SOUL!
[Verse 2]                                                 (play above G before lyrics)
Asus     Cadd9 G G       F
 Foolish devils, running rebels
Asus      Cadd9          G G         F
 Ain't no end to the night when it's going mental
Asus     Cadd9 G       F
 Hot and hazy,  got me crazy
F (ring out)       G
 So tonight we roll
          Asus
I GOT THAT FIRE IN MY SOUL!

[Prechorus]
Asus     Cadd9              G G F
 Hey, no stop drop and roll
                Asus   Cadd9                 G G F
Let's let this, mother burn out of control
              Asus       Cadd9             G  G  F
Don't need no timber for stoking the coals
             F                  G
I'll get this fire higher
          Asus
I GOT THAT FIRE IN MY SOUL!

[Chorus] (strum)
Asus Cadd9 G F
Heeeeeeeeeeeeey
             Asus  Cadd9
I'll get this fire higher
G           F
  I GOT THAT FIRE IN MY SOUL!
Asus Cadd9 G F
Heeeeeeeeeeeeey
             Asus (ring out)
I'll get this fire higher
G           F
  I GOT THAT FIRE IN MY SOUL!

[Interlude]
(PM)Asus    Cadd9         G     F         Asus    Cadd9       G     F
 e|-3h5-3h5-3h5p3---3-5-------------------------------------------------------|
 B|---------------5----------------------(Drum)-5-3h5p3---3-5-----------------|
 G|-----------------------7-7-5h7p5---5-7---------------5-----7-7-5h7-5h7p5---|
 D|---------------------------------7---------------------------------------7-|
 A|---------------------------------------------------------------------------|
 E|---------------------------------------------------------------------------|
                                        Fire!
(PM)Asus    Cadd9         G     F         Asus                G     F (ring out)
 e|-3h5-3h5-3h5p3---3-5-------------------------------------------------------|
 B|---------------5-----------------------3h5-3h5-3h5p3---3-5-----------------|
 G|-----------------------7-7-5h7p5---5-7---------------5-----7-7-5h7-5h7p5---|
 D|---------------------------------7---------------------------------------7-|
 A|---------------------------------------------------------------------------|
 E|---------------------------------------------------------------------------|

[Bridge] (PM)
Asus      Cadd9
Hey eyay eyaye oh ah ah
G          F                  Asus        Cadd9          G G F
 hoh hoh uhoh uhoh ahah
               Let's let this mother burn out of control
(end PM)
Asus      Cadd9
Hey eyay eyaye oh ah ah
G          F                Asus (ring out)
 hoh hoh uhoh uhoh ahah
               I'll get this fire higher
G           F
 I got that-that f-f-FIRE!

(begin strumming)
Asus        Cadd9
 I got that fire in my soul
G           F               Asus   Cadd9
 I got that fire in my soul
                I'll get this fire higher
G           F
 I got that fire in my soul
Asus        Cadd9
 I got that fire in my soul
G           F               Asus (PM)
 I got that fire in my soul
               I'll get this fire higher
N.C.
I GOT THAT FIRE IN MY SOUL!

Asus        Cadd9
 I got that fire in my soul
G           F               Asus   Cadd9
 I got that fire in my soul
                I'll get this fire higher
G           F
 I got that fire in my soul
Asus        Cadd9
 I got that fire in my soul
G           F               Asus (PM)
 I got that fire in my soul
               I'll get this fire higher
G           F
 I got that fire in my soul

[Outro]
N.C.
Hey eyay eyaye oh ah ah
N.C.
hoh hoh uhoh uhoh ahah
N.C.
Hey eyay eyaye oh ah ah

e|-----------------|
B|-----------------|
G|-7-7-5h7-5h7p5---|
D|---------------7-|
A|-----------------|
E|-----------------|

N.C.
Hey eyay eyaye oh ah ah
N.C.
hoh hoh uhoh uhoh ahah
N.C.
Hey eyay eyaye oh ah ah

e|-----------------|
B|-----------------|
G|-7-7-5h7-5h7p5---|
D|---------------7-|
A|-----------------|
E|-----------------|
Suggest correction
Creating personal tab
Creating personal tab
You can edit any tab online and save it as your Personal.

You can edit, replace or remove any tab part or add personal notes – all changes will be seen only by you.

Personal tabs can be accessed anytime from any device, even offline.
Learn more »
Give kudos to tab author, rate the tab!
1 2 3 4 5
comments
print report bad tab
guest
You may want to rate the tab now too:
select rating
Wanna post a correction for this tab? Suggest correction