Oops, an error
Loading. Please wait.

Somebody That I Used To Know tab

version 3
version 3

Interactive

8,374 views 1 this week
no commentswrite comment
1 2 3 4 5
1 last vote to show rating
add to favorites
×
Save as Personal and add changes to this tab that will be seen only by you. Learn more ›
×
You can save this tab as Personal to edit and correct it or add notes. All changes will be seen only by you. Learn more »
launch autoscroll
font size
0
reset
how to read this tab
guitar tuner
edit
Autoscroll
slow
fast
+/-
esc
set tempo
stop
This tab includes the three guitar parts.
I don't know if it's right.

For the time please watch the youtube video.


You can also play this for the woman's part, but then it's hard to play everything together.

             1     2     3     4       
Intro/Verse                            
           e--------------------------|
           B-------15----------13-----|
           G-------14----------12-----|
Woman      D--------------------------|
           A--------------------------|
           E--------------------------|

             1     2     3     4        1     2     3     4
Refrain                            
           e--------------------------|--------------------------|
           B-------15----------13-----|-------11----------13-----|
           G-------14----------12-----|-------10----------12-----|
Woman      D--------------------------|--------------------------|
           A--------------------------|--------------------------|
           E--------------------------|--------------------------|





Intro        1     2     3     4        1     2     3     4     
(0.04 - 0.08)
           e--------------------------|--------------------------| 
           B--------------------------|--------------------------| 
           G--------------------------|--------------------------| 
Right Guy  D--------------------------|--------------------------| 
           A-5-------5---3-------3----|-5-------5---3-------3----| 
           E--------------------------|--------------------------| 

             1     2     3     4        1     2     3     4     

           e--------------------------|--------------------------| 
           B--------------------------|--------------------------|
Guy in     G--------------------------|--------------------------| 
the middle D--------------------------|--------------------------| 
           A--------------------------|--------------------------| 
           E--------------------------|--------------------------| 

             1     2     3     4        1     2     3     4  

           e--------------------------|--------------------------| 
           B--------------------------|--------------------------|
           G-------19----------17-----|-------19----------17-----|
Woman      D-------19----------17-----|-------19----------17-----| 
           A--------------------------|--------------------------| 
           E--------------------------|--------------------------| 

(0.08-0.12)
             1     2     3     4        1     2     3     4  
           e--------------------------|--------------------------| 
           B--------------------------|--------------------------| 
           G--------------------------|--------------------------| 
Right Guy  D--------------------------|--------------------------| 
           A-5-------5---3-------3----|-5-------5---3-------3----| 
           E--------------------------|--------------------------| 
         
             1     2     3     4        1     2     3     4

           e-------------3-----3------|-5--6--8--5--3------------| 
           B-1-----1------------------|--------------------------|
Guy in     G--------------------------|--------------------------| 
the middle D--------------------------|--------------------------| 
           A--------------------------|--------------------------| 
           E--------------------------|--------------------------|

             1     2     3     4        1     2     3     4  

           e--------------------------|--------------------------| 
           B--------------------------|--------------------------|
           G-------19----------17-----|-------19----------17-----|
Woman      D-------19----------17-----|-------19----------17-----| 
           A--------------------------|--------------------------| 
           E--------------------------|--------------------------|
(0.12-0.16)
             1     2     3     4        1     2     3     4  
           e--------------------------|--------------------------| 
           B--------------------------|--------------------------| 
           G--------------------------|--------------------------| 
Right Guy  D--------------------------|--------------------------| 
           A-5-------5---3-------3----|-5-------5---3-------3----| 
           E--------------------------|--------------------------| 
         
             1     2     3     4        1     2     3     4

           e-1-----1-----0-----0------|-3-----3-----1------------| 
           B--------------------------|--------------------------|
Guy in     G--------------------------|--------------------------| 
the middle D--------------------------|--------------------------| 
           A--------------------------|--------------------------| 
           E--------------------------|--------------------------|

             1     2     3     4        1     2     3     4  

           e--------------------------|--------------------------| 
           B--------------------------|--------------------------|
           G-------19----------17-----|-------19----------17-----|
Woman      D-------19----------17-----|-------19----------17-----| 
           A--------------------------|--------------------------| 
           E--------------------------|--------------------------|
(0.16-0.19)

             1     2     3     4        1     2     3     4  
           e--------------------------|--------------------------| 
           B--------------------------|--------------------------| 
           G--------------------------|--------------------------| 
Right Guy  D--------------------------|--------------------------| 
           A-5-------5---3-------3----|-5-------5---3-------3----| 
           E--------------------------|--------------------------| 

             1     2     3     4        1     2     3     4

           e-------------3-----3------|-5--6--8--5--3------------| 
           B-1-----1------------------|--------------------------|
Guy in     G--------------------------|--------------------------| 
the middle D--------------------------|--------------------------| 
           A--------------------------|--------------------------| 
           E--------------------------|--------------------------|

             1     2     3     4        1     2     3     4  

           e--------------------------|--------------------------| 
           B--------------------------|--------------------------|
           G-------19----------17-----|-------19----------17-----|
Woman      D-------19----------17-----|-------19----------17-----| 
           A--------------------------|--------------------------| 
           E--------------------------|--------------------------|
(0.20-0.24)

             1     2     3     4        1     2     3     4  
           e--------------------------|--------------------------| 
           B--------------------------|--------------------------| 
           G--------------------------|--------------------------| 
Right Guy  D--------------------------|--------------------------| 
           A-5-------5---3-------3----|-5-------5---3-------3----| 
           E--------------------------|--------------------------| 

             1     2     3     4        1     2     3     4

           e-------------------0------|-------------------3/5----| 
           B-3-----3------------------|-3-----3------------------|
Guy in     G--------------------------|--------------------------| 
the middle D--------------------------|--------------------------| 
           A--------------------------|--------------------------| 
           E--------------------------|--------------------------|

             1     2     3     4        1     2     3     4  

           e--------------------------|--------------------------| 
           B--------------------------|--------------------------|
           G-------19----------17-----|-------19----------17-----|
Woman      D-------19----------17-----|-------19----------17-----| 
           A--------------------------|--------------------------| 
           E--------------------------|--------------------------|

Verse 1

 Now repeat the part of the right guy and the woman until the chorus.

Add this for the "guy in the middle"'s part (0.38-1.07)


                   Told myself that you were right for me...

             1     2     3     4        1     2     3     4

           e--------------------------|--------------------------| 
           B-3-----3------------------|--------------------------|
Guy in     G--------------------------|--------------------------| 
the middle D--------------------------|--------------------------| 
           A--------------------------|--------------------------| 
           E--------------------------|--------------------------|

                   But felt so lonely in your company...  

             1     2     3     4        1     2     3     4

           e--------------------------|--------------------------| 
           B-3-----3------------------|--------------------------|
           G--------------------------|--------------------------| 
           D--------------------------|--------------------------| 
           A--------------------------|--------------------------| 
           E--------------------------|--------------------------|

                   But this was love and it's an ache I still remember    

             1     2     3     4        1     2     3     4

           e--------------------------|--------------------------| 
           B-3-----3------------------|--------------------------|
           G--------------------------|--------------------------| 
           D--------------------------|--------------------------| 
           A--------------------------|--------------------------| 
           E--------------------------|--------------------------|

             1     2     3     4        1     2     3     4

           e--------------------------|--------------------------| 
           B-3-----3------------------|---------------------3----|
           G--------------------------|--------------------------| 
           D--------------------------|--------------------------| 
           A--------------------------|--------------------------| 
           E--------------------------|--------------------------|

             1     2     3     4        1     2     3     4

           e-5------------------------|-------------8-------5----| 
           B--------------------------|--------------------------|
           G--------------------------|--------------------------| 
           D--------------------------|--------------------------| 
           A--------------------------|--------------------------| 
           E--------------------------|--------------------------|

             1     2     3     4        1     2     3     4

           e-3------------------------|--------------------------| 
           B---------3-----3----------|---------------5-----3----|
           G--------------------------|--------------------------| 
           D--------------------------|--------------------------| 
           A--------------------------|--------------------------| 
           E--------------------------|--------------------------|

             1     2     3     4        1     2     3     4

           e-5------------------------|-------------8-------5----| 
           B--------------------------|--------------------------|
           G--------------------------|--------------------------| 
           D--------------------------|--------------------------| 
           A--------------------------|--------------------------| 
           E--------------------------|--------------------------|

             1     2     3     4        1     2     3     4

           e-3------------------------|--------------------------| 
           B---------3-----3----------|--------------------------|
           G--------------------------|--------------------------| 
           D--------------------------|--------------------------| 
           A--------------------------|--------------------------| 
           E--------------------------|--------------------------|

pause till (1.23)

(1.23-1.33)

                   So when we found that we could not make sense

             1     2     3     4        1     2     3     4

           e--------------------------|--------------------------| 
           B-3-----3------------------|--------------------------|
           G--------------------------|--------------------------| 
           D--------------------------|--------------------------| 
           A--------------------------|--------------------------| 
           E--------------------------|--------------------------|

                   Well you said that we would still be friends

             1     2     3     4        1     2     3     4

           e--------------------------|--------------------------| 
           B-3-----3------------------|--------------------------|
           G--------------------------|--------------------------| 
           D--------------------------|--------------------------| 
           A--------------------------|--------------------------| 
           E--------------------------|--------------------------|

                   But I'll admit that I was glad that it was over

             1     2     3     4        1     2     3     4

           e--------------------------|--------------------------| 
           B-3-----3------------------|--------------------------|
           G--------------------------|--------------------------| 
           D--------------------------|--------------------------| 
           A--------------------------|--------------------------| 
           E--------------------------|--------------------------|

Stop playing the woman's part at 1.33. Keep playing the right guy's part.




It's not finished yet ;)

            
            
Suggest correction
Creating personal tab
Creating personal tab
You can edit any tab online and save it as your Personal.

You can edit, replace or remove any tab part or add personal notes – all changes will be seen only by you.

Personal tabs can be accessed anytime from any device, even offline.
Learn more »
Give kudos to tab author, rate the tab!
1 2 3 4 5
comments
print report bad tab
guest
You may want to rate the tab now too:
select rating
Wanna post a correction for this tab? Suggest correction